Song name
# A B C D E F G H I J K L M N O P Q R S T U V W X Y Z

Silversun Pickups - Catch And Release tab

----------------------------------------------------------------------------
                   Catch and Release - Silversun Pickups
----------------------------------------------------------------------------
Tabbed by: adslam3
I figured this out on acoustic. Hope you enjoy. Let me know if you think
something should be different and I'll fix it and give you credit.
Just use the "comments" section on the tab page.  Enjoy.

Tuning: Standard
Intro/Verse (played throughout most of the song)

e|---------------------------------------------------------------------------|
B|---------------------------------------------------------------------------|
G|---------------------------------------------------------------------------|
D|-2------------9--9-9\-----OR--2-------5/7-7/9--9-9\------------------------|
A|-2-2h3p2---0--9--9-9\---------2-2h3p2-5/7-7/9--9-9\------------------------|
E|-0-------3----7--7-7\---------0-------3/5-5/7--7-7\------------------------|

Chorus (I use open chords to play it, but you could use power chords, etc)
NOTE: Strumming not exact. Listen for the changes and how many times to
play this.
     C            G        D
e|--0-0-0-0------3-3------2-2-----------------------------------------------|
B|--1-1-1-1------3-3------3-3----------play this 3 times then back to verse-|
G|--0-0-0-0------0-0------2-2-----------------------------------------------|
D|--2-2-2-2------0-0------0-0-----------------------------------------------|
A|--3-3-3-3------2-2--------------------------------------------------------|
E|--0-0-0-0------3-3--------------------------------------------------------|

Lead back into verse (at about 1:07) - I'm not sure about this...sorry
e|---------------------7----------------------------------------------------|
B|---------------------7----------------------------------------------------|
G|-------------------7------------------------------------------------------|
D|-2-----------7/9-9--------------------------------------------------------|
A|-2-2h3p2---0-7/9----------------------------------------------------------|
E|-0-------3---5/7----------------------------------------------------------|

Now back to verse

BUT, for the next chorus (the one that starts at 2:00),
you'll notice the chorus chords are played about 3 times like before then
you hear the verse riff then back to chorus. When you listen to the song
you'll know what I mean

Bridge (2:39) NOTE: strumming not exact. E, C, and G are strummed about 16
times and B and D are strummed 8 times.

Play this once
   E        C        G         B    D
e|-0-0-0-0--0-0-0-0--3-3-3-3---2-2--2-2-------------------------------------|
B|-0-0-0-0--1-1-1-1--3-3-3-3---4-4--3-3-------------------------------------|
G|-1-1-1-1--0-0-0-0--0-0-0-0---4-4--2-2-------------------------------------|
D|-2-2-2-2--2-2-2-2--0-0-0-0---4-4--0-0-------------------------------------|
A|-2-2-2-2--3-3-3-3--2-2-2-2---2-2------------------------------------------|
E|-0-0-0-0--0-0-0-0--3-3-3-3------------------------------------------------|

Change to this at about 2:55 (strumming still not shown)
   C        E        A         B    D
e|-0-0-0-0--0-0-0-0--0-0-0-0---2-2--2-2-------------------------------------|
B|-1-1-1-1--0-0-0-0--2-2-2-2---4-4--3-3-------This whole part is -----------|
G|-0-0-0-0--1-1-1-1--2-2-2-2---4-4--2-2-----------------played 3 times------|
D|-2-2-2-2--2-2-2-2--2-2-2-2---4-4--0-0-------------------------------------|
A|-3-3-3-3--2-2-2-2--0-0-0-0---2-2------------------------------------------|
E|-0-0-0-0--0-0-0-0---------------------------------------------------------|

Then the rest of the song is the chorus with verse riffs like we did at
2:00.

From 4:15 through the end, is the verse.

These are the few notes your hear at the very end.
e|---------7~----------------------------------------------------------------|
B|---------7~----------------------------------------------------------------|
G|---0-----------------------------------------------------------------------|
D|------7--------------------------------------------------------------------|
A|---------------------------------------------------------------------------|
E|-7-------------------------------------------------------------------------|

And that's it.  I hope it's not too confusing.  If it is then send me a
message and I'll try to change the format or something.

| /  slide up
| \  slide down
| h  hammer-on
| p  pull-off
| ~  vibrato
| +  harmonic
| x  Mute note
===============================================================================
Tap to rate this tab
# A B C D E F G H I J K L M N O P Q R S T U V W X Y Z