Song name
# A B C D E F G H I J K L M N O P Q R S T U V W X Y Z

Silversun Pickups - Sort Of tab

-------------------------------------------------------------------------------
		           Sort Of - Silversun Pickups
-------------------------------------------------------------------------------
Tabbed by: Ahrum
Email: Themoogledance@hotmail.com

Tuning: Standard

My second Silversun Tab... check out It's Nice to Know you Work Alone 
for me, !!!

I sat down after attempting to learn Panic Switch (the solo on that song
still gets me), and got jumped to this one.  This one is one of my 
favorite songs to play, but I'm still not 100% sure about the Chorus or
the 5th part of the solo.  Check it and let me know!

As for the Chorus, it sounds perfectly fine playing it just as power chords.

Main Riff
e|-------------------------------------------------------------------------|
B|-------------------------------------------------------------------------|
G|-------------------------------------------------------------------------|
D|-------------------------------------------------------------------------|
A|-------------------------------------------------------------------------|
E|---1--3--5--7--8----1--3--5--7--8---5--8--10--8--12---5--8--10--8--12----|x5

e|--------------------------------------------|
B|--------------------------------------------|
G|--------------------------------------------|
D|--------------------------------------------|
A|------------------------------------7-------|
E|---1--3--5--7--8----3--5--3--8--7---5-------|
                                      ^ Strum a lot for verse 2

Pre-Chorus
e|-------------------------------------------------|
B|-------------------------------------------------|
G|-------------------------------------------------|
D|----------------------------------5-------(5)----|
A|------7-----5------------7-----5--3---3---(5)----|
E|---5-----3-----1------5-----3---------1---(3)----|x2
                                             ^ only played on 3rd pre-chorus


Chorus  (As noted above, sounds fine as power chords.)
e|---------------------------------------------------------------------------|
B|---------------------------------------------------------------------------|
G|---5-5-5-5-5-5-5-5--9--9--9--9--9--9--9--9-4-4-4-4-4-4-4-4-7-7-7-7-7-7-7-7-|
D|---7-7-7-7-7-7-7-7-10-10-10-10-10-10-10-10-5-5-5-5-5-5-5-5-9-9-9-9-9-9-9-9-|
A|---7-7-7-7-7-7-7-7-10-10-10-10-10-10-10-10-5-5-5-5-5-5-5-5-9-9-9-9-9-9-9-9-|
E|---5-5-5-5-5-5-5-5--8--8--8--8--8--8--8--8-3-3-3-3-3-3-3-3-7-7-7-7-7-7-7-7-|

(ending)
e|----------------------------------------|
B|----------------------------------------|
G|---5-5-5-5-5-5-5-5-1-1-1-1-1-1-1-1-4~---|
D|---7-7-7-7-7-7-7-7-3-3-3-3-3-3-3-3-5~---|
A|---7-7-7-7-7-7-7-7-3-3-3-3-3-3-3-3-5~---|
E|---5-5-5-5-5-5-5-5-1-1-1-1-1-1-1-1-3~---|

Bridge
e|---------------------------------------------|
B|---------------------------------------------|
G|---------------------------------------------|
D|---7----9---10----12----7----9----10----12---|
A|---5----7----8----10----5----7-----8----10---|
E|---------------------------------------------|

Solo
e|--------------------------------------|
B|--------------------------------------|
G|---141414141414141414(141414141414)b--|
D|--------------------------------------|
A|--------------------------------------|
E|--------------------------------------|
*Those are 14s

e|---------------------------------------------------------------|
B|---------------------------------------------------------------|
G|---------------------------------------------------------------|
D|----7p5-7p5-7p5-10p9-10p9-10p9-12p10-12p10-14p12-14p12-14p12---|
A|---------------------------------------------------------------|
E|---------------------------------------------------------------| x2

e|-----------------------------------------------------|
B|-----------------------------------------------------|
G|-----------------------------------------------------|
D|----3p2-3p2-3p2-7p5-7p5-7p5-9p7-9p7-10p9-10p9-10p9---|
A|-----------------------------------------------------|
E|-----------------------------------------------------| x2

e|---------------------------------------------------------------|
B|---------------------------------------------------------------|
G|---------------------------------------------------------------|
D|----7p5-7p5-7p5-10p9-10p9-10p9-12p10-12p10-14p12-14p12-14p12---|
A|---------------------------------------------------------------|
E|---------------------------------------------------------------| x2

e|------------------------------------------------------|
B|------------------------------------------------------|
G|------------------------------------------------------|
D|----3p2-3p2-3p2-7p5-7p5-7p5-9p7-9p7-10p9-10p9-10p9----|
A|------------------------------------------------------|
E|------------------------------------------------------| x2

e|------------------------------------------------------|
B|------------------------------------------------------|
G|------------------------------------------------------|
D|----5p4-5p4-5p4-7p5-7p5-7p5-9p7-9p7-10p9-10p9-10p9----|
A|------------------------------------------------------|
E|------------------------------------------------------| x2

e|----------------------------------------------------------------|
B|----------------------------------------------------------------|
G|----------------------------------------------------------------|
D|----7p5-7p5-7p5-10p9-10p9-10p9-12p10-12p10-14p12-14p12-14p12----|
A|----------------------------------------------------------------|
E|----------------------------------------------------------------| x2

e|----------------------------------------|
B|----------------------------------------|
G|------141414141414141414(14141414141)b--|
D|----------------------------------------|
A|----------------------------------------|
E|----------------------------------------|
End Solo


ORDER

[Main Riff]
[Pre-Chorus]
[Chorus]
[Main Riff]
[Pre-Chorus]
[Chorus]
[Bridge]
[Solo]
[Pre-Chorus]
[Chorus]


| /  slide up
| \  slide down
| h  hammer-on
| p  pull-off
| ~  vibrato
| +  harmonic
| x  Mute note
===============================================================================
Tap to rate this tab
# A B C D E F G H I J K L M N O P Q R S T U V W X Y Z