Guitaretab - guitar tabs
Song name
# A B C D E F G H I J K L M N O P Q R S T U V W X Y Z

Silversun Pickups - Surrounded Or Spiraling tab

-------------------------------------------------------------------------------
			     "Surrounded (Or Spiraling)" - Silversun Pickups
-------------------------------------------------------------------------------
Tabbed by: CatNamedEaster
Email: fear_and_loathing56@yahoo.com

Tuning: Db Ab Db Gb Bb eb (Half-Step Drop-D)

Note: I initially learned this song in Eb tuning, but in the 
very beginning of this song I can hear Brian hitting a brief, 
open Db before the onslaught of Eb so... I transcribed it for 
half-step drop-D instead. I'm not so sure of how correct the
chorus bit is, but if anyone has a better suggestion please feel free.

Intro

0:00          0:01                   x4
eb|---|--------------------------------|
Bb|---|--------------------------------|
Gb|---|--------------------------------|
Db|-0-|2-2-2-2-2-2-2-2-2-2-2-2-2-2-2-2-|
Ab|-0-|2-2-2-2-2-2-2-2-2-2-2-2-2-2-2-2-|
Db|-0-|2-2-2-2-2-2-2-2-2-2-2-2-2-2-2-2-|


Verse Riff

   0:15                          x2  0:23 
eb|---------------------------------|-----------------------------|
Bb|---------------------------------|-----------------------------|
Gb|---------------------------------|-----------------------------|
Db|-2-2-2-2-2-2-2-2-2-2-2-2-2-2-2-2-|-5-5-5-5-5-5-5/7-7-7-7-7-7-7-|
Ab|-2-2-2-2-2-2-2-2-2-2-2-2-2-2-2-2-|-5-5-5-5-5-5-5/7-7-7-7-7-7-7-|
Db|-2-2-2-2-2-2-2-2-2-2-2-2-2-2-2-2-|-5-5-5-5-5-5-5/7-7-7-7-7-7-7-|
  
  0:27
eb|---------------------------------|
Bb|---------------------------------|
Gb|---------------------------------|
Db|-2-2-2-2-2-2-2-2-2-2-2-2-2-2-2-2-|
Ab|-2-2-2-2-2-2-2-2-2-2-2-2-2-2-2-2-|
Db|-2-2-2-2-2-2-2-2-2-2-2-2-2-2-2-2-|


Repeat verse 2x


Chorus

(Note: I'm not entirely certain about the chorus here, but I 
think it's extremely close at the very least...)

   0:45                                                     x2
eb|-----------------------------------------------------------|
Bb|-----------------------------------------------------------|
Gb|-5------------7--------------------------4-4-4-4-4-4-4-4-4-|
Db|-5--5-5-5--5--7--7-7-7--7--2-2-2-2-2-2-2-4-4-4-4-4-4-4-4-4-|
Ab|-3--5-5-5--5--5--7-7-7--7--2-2-2-2-2-2-2-2-2-2-2-2-2-2-2-2-|
Db|----5-5-5--5-----7-7-7--7--2-2-2-2-2-2-2-------------------|

eb|-----------------------------------------------------------|
Bb|-----------------------------------------------------------|
Gb|-5------------7--------------------------5-5-5-5-5-5-5-5-5-|
Db|-5--5-5-5--5--7--7-7-7--7--2-2-2-2-2-2-2-5-5-5-5-5-5-5-5-5-|
Ab|-3--5-5-5--5--5--7-7-7--7--2-2-2-2-2-2-2-3-3-3-3-3-3-3-3-3-|
Db|----5-5-5--5-----7-7-7--7--2-2-2-2-2-2-2-------------------|

eb|---------------------------|
Bb|---------------------------|
Gb|-5------------7------------|
Db|-5--5-5-5--5--7--7-7-7--7--|
Ab|-3--5-5-5--5--5--7-7-7--7--|
Db|----5-5-5--5-----7-7-7--7--|


Back to intro riff x2
Verse x2
Chorus x1


Bridge

   2:17                 2:20  (light distortion)
eb|--------------------|---------------0---------0------0-|
Bb|--------------------|-----5--------------2--2---2------|
Gb|-6~\----------------|--6----6---4-----4--2-------------|
Db|-6~\----------------|--6--------2--------2---------2---|
Ab|-4~\----------------|--4--------2--------0-------------|
Db|--------------------|-----------2----------------------|

   2:28
eb|--------------|
Bb|--------------|
Gb|--6-----/9----|
Db|--4-----/7----|
Ab|--4-----/7----|
Db|--4-----/7----|

   2:32
eb|-------------------------0--------0----0--|
Bb|----5-------------5----------2--2---------|
Gb|-6---6--6------6---6--4------2------------|
Db|-6------6------6------2------2------------|
Ab|-4------4------4------2------0-------0----|
Db|----------------------2-------------------|
[ Tab from: http://www.guitaretab.com/s/silversun-pickups/186788.html ]
   2:43             
eb|--------------|
Bb|--------------|
Gb|--6-----/9----|
Db|--4-----/7----|
Ab|--4-----/7----|
Db|--4-----/7----|

   2:47
eb|-------------------------0--------0----0--|
Bb|----5-------------5----------2--2---------|
Gb|-6---6--6------6---6--4------2------------|
Db|-6------6------6------2------2------------|
Ab|-4------4------4------2------0-------0----|
Db|----------------------2-------------------|

     
   2:58        x2
eb|--------------|
Bb|--------------|
Gb|--6-----/9----|
Db|--4-----/7----|
Ab|--4-----/7----|
Db|--4-----/7----|


Solo

   3:06       x22  3:26                          3:29       x7
eb|--------------|-----------------------------|--------------|
Bb|-----------12-|-----------12-12b13b12-------|-----------12-|
Gb|-----12-14----|-----12-14-------------14-12-|-----12-14----|
Db|--14----------|--14-------------------------|--14----------|
Ab|--------------|-----------------------------|--------------|
Db|--------------|-----------------------------|--------------|
   
   3:36                    3:40
eb|----------------------|-------------------------------|
Bb|----------------------|-------------------------------|
Gb|-5---------7----------|-------------------------------|
Db|-5--5-5----5--7--5--7-|-2-2-2-2-2-2-2-2-2-2-2-2-2-2-2-|
Ab|-3--5-5----5--7--5--7-|-2-2-2-2-2-2-2-2-2-2-2-2-2-2-2-|
Db|----5-5-------7--5--7-|-2-2-2-2-2-2-2-2-2-2-2-2-2-2-2-| 

   3:44                           4x   3:44
eb|---------------------------------|------|
Bb|---------------------------------|------|
Gb|---------------------------------|--13--| (I also hear this many times)
Db|-2-2-2-2-2-2-2-2-2-2-2-2-2-2-2-2-|--x---|
Ab|-2-2-2-2-2-2-2-2-2-2-2-2-2-2-2-2-|--11--|
Db|-2-2-2-2-2-2-2-2-2-2-2-2-2-2-2-2-|------|


Chorus x1


Then play this once at the end:

   4:25 
eb|-------------------------0--------0-----|
Bb|-----------5------5----------2--2-------|
Gb|-6------6------6------4------2----------|
Db|-6------6------6------2------2----------| (fade out)
Ab|-4------4------4------2------0----------|
Db|----------------------2-----------------|

End


Lyrics:

remember when you were the hunted
remember how i swallowed you in
remember the rewards shimmering on the floor 
off the clear plastic chandelier
remember when i saw you in orbit
remember when i pulled you back in
remember looking on blinking into the dawn
thinking how this will never end
surrounded
let's romanticize
our beloved memories
surrounded
let's demonize
 our softest injuries
surrounded
can we get behind
distortion of liberties
surrounded
we're surrounded or spiraling
remember when i played assassin
remember when my joking turned grim
remember how we thought if we followed the dots
it would stop all the accidents
remember when you broke my halo
remember how i tied your wings in
remember how we slipped on the lies we equipped
just to bring back the goods again
surrounded
let's romanticize
our beloved memories
surrounded
let's demonize
 our softest injuries
surrounded
can we get behind
distortion of liberties
surrounded
we're surrounded or spiraling
is it perfect in our little hell
are you dancing or stumbling beside me
well this might not be
let's wait and see
so now that we've stopped hearing echos
and now that the replay's worn thin
just remember who held you
remember who held you
remember who held you
remember who held you
remember who held you
surrounded
let's romanticize
our beloved memories
surrounded
let's demonize
 our softest injuries
surrounded
can we get behind
distortion of liberties
surrounded
we're surrounded or spiraling
is it perfect in our little hell

| /  slide up
| \  slide down
| h  hammer-on
| p  pull-off
| ~  vibrato
| +  harmonic
| x  Mute note
===============================================================================
Related for Surrounded Or Spiraling tab
Advertisement will be closed in 10 seconds