Song name
# A B C D E F G H I J K L M N O P Q R S T U V W X Y Z

Silversun Pickups - Theres No Secrets This Year tab

-------------------------------------------------------------------------------
	          There's No Secrets This Year - Silversun Pickups
-------------------------------------------------------------------------------
Tabbed by: Jigsawwill
Email:

Tuning: Drop D

Intro: (00:11 - 00:26)

This part of the intro is very distorted, hard to make out. Came up with this.

e|------------------------|
B|------------------------|
G|------------------------| (Listen for how many times)
D|------------------------|
A|------------------------|
D|--14-14-14-14-x-x-x-----|

Intro: (00:27 - 00:42)

Listen for how many times to strum.

e|-----------------------------------------------------|
B|-----------------------------------------------------|
G|--13-13-13/16-16-16-16-16-16-16-16\13-13-13-13-13----| (4x)
D|---x--x--x--x--x--x--x--x--x--x--x--x--x--x--x--x----|
A|--11-11-11/14-14-14-14-14-14-14-14\11-11-11-11-11----|
D|-----------------------------------------------------|

Verse: (00:43 - 1:02)

e|---------------------------------------------------|      e|--------------|
B|---------------------------------------------------|      B|--------------|
G|--13-13-13/16-16-16-16-16-16-16-16\13-13-13-13-13--| (2x) G|--------------|
D|---x--x--x--x--x--x--x--x--x--x--x--x--x--x--x--x--|      D|--7-7/9\7/11~-|
A|--11-11-11/14-14-14-14-14-14-14-14\11-11-11-11-11--|      A|--7-7/9\7/11~-|
D|---------------------------------------------------|      D|--7-7/9\7/11~-|

e|---------------------------------------------------|      e|--------------|
B|---------------------------------------------------|      B|--------------|
G|--13-13-13/16-16-16-16-16-16-16-16\13-13-13-13-13--| (2x) G|--------------|
D|---x--x--x--x--x--x--x--x--x--x--x--x--x--x--x--x--|      D|--7-7/9\7/11~-|
A|--11-11-11/14-14-14-14-14-14-14-14\11-11-11-11-11--|      A|--7-7/9\7/11~-|
D|---------------------------------------------------|      D|--7-7/9\7/11~-|

Chorus: (1:03 - 1:28)

Listen for how many times to strum.

e|---------------------------------------------------------|
B|---------------------------------------------------------| (2x)
G|--13-13-13\9-9-9-9-9/13-13-13-13-13-13\9-9-9/13-13-13-13-|
D|---x--x--x-x-x-x-x-x--x--x--x--x--x--x-x-x-x--x--x--x--x-|
A|--11-11-11\7-7-7-7-7/11-11-11-11-11-11\7-7-7/11-11-11-11-|
D|---------------------------------------------------------|

e|-------------------------------------------------------------|
B|-------------------------------------------------------------|
G|--13-13-13\9-9-9-9-9/13-13-13-13-13-13--\11111\9-9-9\6-6-6-6-|
D|---x--x--x-x-x-x-x-x--x--x--x--x--x--x---x-x-x-x-x-x-x-x-x-x-|
A|--11-11-11\7-7-7-7-7/11-11-11-11-11-11--\9-9-9\7-7-7\4-4-4-4-|
D|-------------------------------------------------------------|

e|---------------------------------------------------------|
B|---------------------------------------------------------|
G|--13-13-13\9-9-9-9-9/13-13-13-13-13-13\9-9-9/13-13-13-13-|
D|---x--x--x-x-x-x-x-x--x--x--x--x--x--x-x-x-x--x--x--x--x-|
A|--11-11-11\7-7-7-7-7/11-11-11-11-11-11\7-7-7/11-11-11-11-|
D|---------------------------------------------------------|

Verse #2: (1:29 - 2:02)

Basically the same thing except for this part.

e|-----------------------------|
B|-----------------------------|
G|-------9--7---------9--7-----|
D|--9-9--------7---9--------7~-|
A|--7--------------------------|
D|-----------------------------|

[Play Chorus]

Bridge: (2:27 - 2:41)

e|--------------------------|
B|--------------------------|
G|--8/9\8--4~---------6-6-6-| (4x)
D|--x-x----x~--6-6-6--x-x-x-|
A|--6/7\6--2~--x-x-x--4-4-4-|
D|-------------6-6-6--------|

Solo: (2:42 - 2:56)

e|---------------------------------------------------------------------|
B|---------------------------------------------------------------------|
G|--8b(9)r8--4~-----------------8b(9)r8~--4~---------------------------|
D|--------------6666-9999-6666---------------6666-9999-4444-6666-------|
A|---------------------------------------------------------------------|
D|---------------------------------------------------------------------|

e|---------------------------------------------------------------------|
B|---------------------------------------------------------------------|
G|--8b(9)r8--9b(11)r9~------------------------------------8b(9)r8--4~--|
D|-----------------------11111111-13131313-9999-11111111---------------|
A|---------------------------------------------------------------------|
D|---------------------------------------------------------------------|

Breakdown: (3:01 - 3:38)

e|-------------------------------|
B|-------------------------------|
G|-------------------------------| (Play Once)
D|--7-9-5-7-4-4-5-4-5-5----------|
A|--7-9-5-7-4-4-5-4-5---7--------|
D|--7-9-5-7-4-4-5-4-5------------|

e|--------------------|                              e|----------------|
B|--------------------| (Listen for how many times)  B|----------------|
G|--------------------|                              G|----------------|
D|--------------------|                              D|----7-7/9\7/11~-|
A|--------------------|                              A|----7-7/9\7/11~-|
D|--14-14-14-14-x-x-x-|                              D|----7-7/9\7/11~-|

e|--------------------|                              e|----------------|
B|--------------------| (Listen for how many times)  B|----------------|
G|--------------------|                              G|----------------|
D|--------------------|                              D|----7-7/9\7/11~-|
A|--------------------|                              A|----7-7/9\7/11~-|
D|--14-14-14-14-x-x-x-|                              D|----7-7/9\7/11~-|


[Play Chorus]

Outro: (4:03 - 4:32)

Listen for how many times to strum.

e|-----------------------------------------------------|
B|-----------------------------------------------------|
G|--13-13-13/16-16-16-16-16-16-16-16\13-13-13-13-13----| (5x)
D|---x--x--x--x--x--x--x--x--x--x--x--x--x--x--x--x----|
A|--11-11-11/14-14-14-14-14-14-14-14\11-11-11-11-11----|
D|-----------------------------------------------------|

e|------------------------------------------------------------|
B|------------------------------------------------------------|
G|--13-13-13/16-16-16-16-16-16-16-16--------------------------|
D|---x--x--x--x--x--x--x--x--x--x--x---7-9-5-7-4-4-5-4-5-5----|
A|--11-11-11/14-14-14-14-14-14-14-14---7-9-5-7-4-4-5-4-5---7~-|
D|-------------------------------------7-9-5-7-4-4-5-4-5------|

The rest of the track is just a build up for the next track. If you have any question 
message me or leave a comment.

Enjoy!

| /  slide up
| \  slide down
| h  hammer-on
| p  pull-off
| ~  vibrato
| +  harmonic
| x  Mute note
===============================================================================
Tap to rate this tab
# A B C D E F G H I J K L M N O P Q R S T U V W X Y Z