Song name
# A B C D E F G H I J K L M N O P Q R S T U V W X Y Z

Silversun Pickups - All The Go Inbetweens tab

			     Silversun Pickups
-------------------------------------------------------------------------------
Tabbed by: Deadroses12
Email:surf_32@hotmail.com

Tuning: Drop D

Okay, this is a watered down version but I still think it sounds good. I've transcribed 
intro and chorus. If anyone has any suggestions, please email me.

e|-----------------------------------------------------------------------------|
B|-----------------------------------------------------------------------------|
G|-----------------------------------------------------------------------------|
D|-----------------------------------------------------------------------------|
A|-12---12---12---12----10---10---10---10---9---9--9-----9--10--9----0---------|
E|--0---0----0----0-----0----0----0----0----0---0--0-----0---0--0----0---------|

e|-----------------------------------------------------------------------------|
B|-----------------------------------------------------------------------------|
G|-----------------------------------------------------------------------------|
D|-----------------------------------------------------------------------------|
A|- 12--12--12- --10---10---10---15--15--15---12--0----------------------------|
E|--0---0---0----0----0----0----0---0---0----0---0-----------------------------|


Chorus: Son you're still young but your mind...
e|---------------------------------------------------------------------------|
B|---------------------------------------------------------------------------|
G|---------------------------------------------------------------------------|
D|---------------------------------------------------------------------------|
A|555555555555      000       12 (bend)            000     12 (bend)
E|555555555555      000       0                    000      0
Tap to rate this tab
 
# A B C D E F G H I J K L M N O P Q R S T U V W X Y Z