Song name
# A B C D E F G H I J K L M N O P Q R S T U V W X Y Z

Silversun Pickups - Theres No Secrets This Year tab

Theres No Secrets This Year
Silversun Pickups
Tabbed by: JCW

Tuning: Drop D

Intro: 

e|--------------------------------------------------------------------|
B|--------------------------------------------------------------------|
G|--------------------------------------------------------------------| 
D|--------------------------------------------------------------------|
A|--------------------------------------------------------------------|
D|-12p-0*-0-h12-x-x-x-12p-0-0-h12-x-x-x-12p-0-0-12p-0-0-12p-0-0-12p-0-|    

*The open D is the result of the pull off, the next one is struck

e|---------------|
B|---------------|
G|---------------| 
D|---------------|
A|---------------|
D|0-h12-x-x-x----|

	Repeat 4x

Verse:

The strumming pattern here is not perfect, but it is close:

e|-------------------------------------------------------------------|
B|-------------------------------------------------------------------|
G|-----11-11-11-h14-14-14-14-14-14-14-14--14-14-14-14-14-14-14-11-11-| 
D|------0--0--0---0--0--0--0--0--0--0--0---0--0--0--0--0--0--0--0--0-|
A|------x--x--x---x--x--x--x--x--x--x--x---x--x--x--x--x--x--x--x--x-|
D|--12-12-12-12--12-12-12-12-12-12-12-12--12-12-12-12-12-12-12-12-12-|

e|--------------|
B|--------------|
G|--11-11-11----|
D|---0--0--0----|
A|---x--x--x----|
D|--12-12-12----|
	
Repeat 6x

Bridge: 

e|--------------------------|
B|--------------------------|
G|--7-7-x-9-9-x-11-11-x--x--| 
D|--5-5-x-7-7-x--9--9-x-11--|
A|--5-5-x-7-7-x--9--9-x--x--|
D|--5-5-x-7-7-x--9--9-x--9--|


Verse: 

e|-------------------------------------------------------------------|
B|-------------------------------------------------------------------|
G|-----11-11-11-h14-14-14-14-14-14-14-14--14-14-14-14-14-14-14-11-11-| 
D|------0--0--0---0--0--0--0--0--0--0--0---0--0--0--0--0--0--0--0--0-|
A|------x--x--x---x--x--x--x--x--x--x--x---x--x--x--x--x--x--x--x--x-|
D|--12-12-12-12--12-12-12-12-12-12-12-12--12-12-12-12-12-12-12-12-12-|

e|--------------|
B|--------------|
G|--11-11-11----|
D|---0--0--0----|
A|---x--x--x----|
D|--12-12-12----|

	Repeat 2x, then:

e|--------------------------|
B|--------------------------|
G|--7-7-x-9-9-x-11-11-x--x--| 
D|--5-5-x-7-7-x--9--9-x-11--|
A|--5-5-x-7-7-x--9--9-x--x--|
D|--5-5-x-7-7-x--9--9-x--9--|

Chorus:

e|-------------------------------------------------------------------|
B|-------------------------------------------------------------------|
G|11-11-x-7-7-7-7-7-/11-11-11-11-11-11-11-11-11--11-11--7-7-7-7-/11--|
D|-x--x-x-5-5-5-5-5-/-9--9--9--9--9--9--9--9--9-x-x--x--5-5-5-5-/-9--|
A|-9--9-x-5-5-5-5-5-/-9--9--9--9--9--9--9--9--9-x-9--9--5-5-5-5-/-9--|
D|-0--0---5-5-5-5-5-/-9--9--9--9--9--9--9--9--9-x-0--0--5-5-5-5-/-9--|

e|----------------|
B|----------------|
G|--11-11-11-11---| 
D|---9--9--9--9---|
A|---9--9--9--9---|
D|---9--9--9--9---|

	Repeat 2x, then:

e|--------------------------------------------------------------------|
B|--------------------------------------------------------------------|
G|11-11-x-7-7-7-7-7-/11-11-11-11-11-11-11-11-11--11-11-9-9-9-9-9-\4-4-|
D|-x--x-x-5-5-5-5-5-/-9--9--9--9--9--9--9--9--9-x-x--x-x-x-x-x-x-\x-x-|
A|-9--9-x-5-5-5-5-5-/-9--9--9--9--9--9--9--9--9-x-9--9-7-7-7-7-7-\2-2-|
D|-0--0---5-5-5-5-5-/-9--9--9--9--9--9--9--9--9-x-0--0-x-x-x-x-x-\x-x-|


e|-----------|
B|-----------|
G|-4-4-4-4---| 
D|-x-x-x-x---|
A|-2-2-2-2---|
D|-x-x-x-x---|


e|-------------------------------------------------------------------|
B|-------------------------------------------------------------------|
G|11-11-x-7-7-7-7-7-/11-11-11-11-11-11-11-11-11--11-11--7-7-7-7-/11--|
D|-x--x-x-5-5-5-5-5-/-9--9--9--9--9--9--9--9--9-x-x--x--5-5-5-5-/-9--|
A|-9--9-x-5-5-5-5-5-/-9--9--9--9--9--9--9--9--9-x-9--9--5-5-5-5-/-9--|
D|-0--0---5-5-5-5-5-/-9--9--9--9--9--9--9--9--9-x-0--0--5-5-5-5-/-9--|

e|----------------|
B|----------------|
G|--11-11-11-11---| 
D|---9--9--9--9---|
A|---9--9--9--9---|
D|---9--9--9--9---|

Verse 2:

e|-------------------------------------------------------------------|
B|-------------------------------------------------------------------|
G|-----11-11-11-h14-14-14-14-14-14-14-14--14-14-14-14-14-14-14-11-11-| 
D|------0--0--0---0--0--0--0--0--0--0--0---0--0--0--0--0--0--0--0--0-|
A|------x--x--x---x--x--x--x--x--x--x--x---x--x--x--x--x--x--x--x--x-|
D|--12-12-12-12--12-12-12-12-12-12-12-12--12-12-12-12-12-12-12-12-12-|

e|--------------|
B|--------------|
G|--11-11-11----|
D|---0--0--0----|
A|---x--x--x----|
D|--12-12-12----|

	Repeat 2x

Intro: 
To late little one...
e|--------------------------------------------------------------------|
B|--------------------------------------------------------------------|
G|--------------------------------------------------------------------| 
D|--------------------------------------------------------------------|
A|--------------------------------------------------------------------|
D|-12p-0*-0-h12-x-x-x-12p-0-0-h12-x-x-x-12p-0-0-12p-0-0-12p-0-0-12p-0-|    

e|---------------|
B|---------------|
G|---------------| 
D|---------------|
A|---------------|
D|0-h12-x-x-x----|

	Repeat 2x

Verse: 
 ...thats the reason you still fear...
e|-------------------------------------------------------------------|
B|-------------------------------------------------------------------|
G|-----11-11-11-h14-14-14-14-14-14-14-14--14-14-14-14-14-14-14-11-11-| 
D|------0--0--0---0--0--0--0--0--0--0--0---0--0--0--0--0--0--0--0--0-|
A|------x--x--x---x--x--x--x--x--x--x--x---x--x--x--x--x--x--x--x--x-|
D|--12-12-12-12--12-12-12-12-12-12-12-12--12-12-12-12-12-12-12-12-12-|

e|--------------|
B|--------------|
G|--11-11-11----|
D|---0--0--0----|
A|---x--x--x----|
D|--12-12-12----|

	Repeat 2x
 
Bridge: 
 If the screams arent buried...
e|--------------------------|
B|--------------------------|
G|--7-7-x-9-9-x-11-11-x--x--| 
D|--5-5-x-7-7-x--9--9-x-11--|
A|--5-5-x-7-7-x--9--9-x--x--|
D|--5-5-x-7-7-x--9--9-x--9--|

	Repeat 1x

Verse: 

e|-------------------------------------------------------------------|
B|-------------------------------------------------------------------|
G|-----11-11-11-h14-14-14-14-14-14-14-14--14-14-14-14-14-14-14-11-11-| 
D|------0--0--0---0--0--0--0--0--0--0--0---0--0--0--0--0--0--0--0--0-|
A|------x--x--x---x--x--x--x--x--x--x--x---x--x--x--x--x--x--x--x--x-|
D|--12-12-12-12--12-12-12-12-12-12-12-12--12-12-12-12-12-12-12-12-12-|

e|--------------|
B|--------------|
G|--11-11-11----|
D|---0--0--0----|
A|---x--x--x----|
D|--12-12-12----|

	Repeat 1x

Bridge: 
 ...youll let the echoes...
e|--------------------------|
B|--------------------------|
G|--7-7-x-9-9-x-11-11-x--x--| 
D|--5-5-x-7-7-x--9--9-x-11--|
A|--5-5-x-7-7-x--9--9-x--x--|
D|--5-5-x-7-7-x--9--9-x--9--|

	Repeat 1x

Chorus:

e|-------------------------------------------------------------------|
B|-------------------------------------------------------------------|
G|11-11-x-7-7-7-7-7-/11-11-11-11-11-11-11-11-11--11-11--7-7-7-7-/11--|
D|-x--x-x-5-5-5-5-5-/-9--9--9--9--9--9--9--9--9-x-x--x--5-5-5-5-/-9--|
A|-9--9-x-5-5-5-5-5-/-9--9--9--9--9--9--9--9--9-x-9--9--5-5-5-5-/-9--|
D|-0--0---5-5-5-5-5-/-9--9--9--9--9--9--9--9--9-x-0--0--5-5-5-5-/-9--|

e|----------------|
B|----------------|
G|--11-11-11-11---| 
D|---9--9--9--9---|
A|---9--9--9--9---|
D|---9--9--9--9---|

	Repeat 2x, then:

e|--------------------------------------------------------------------|
B|--------------------------------------------------------------------|
G|11-11-x-7-7-7-7-7-/11-11-11-11-11-11-11-11-11--11-11-9-9-9-9-9-\4-4-|
D|-x--x-x-5-5-5-5-5-/-9--9--9--9--9--9--9--9--9-x-x--x-x-x-x-x-x-\x-x-|
A|-9--9-x-5-5-5-5-5-/-9--9--9--9--9--9--9--9--9-x-9--9-7-7-7-7-7-\2-2-|
D|-0--0---5-5-5-5-5-/-9--9--9--9--9--9--9--9--9-x-0--0-x-x-x-x-x-\x-x-|



e|-----------|
B|-----------|
G|-4-4-4-4---| 
D|-x-x-x-x---|
A|-2-2-2-2---|
D|-x-x-x-x---|


e|-------------------------------------------------------------------|
B|-------------------------------------------------------------------|
G|11-11-x-7-7-7-7-7-/11-11-11-11-11-11-11-11-11--11-11--7-7-7-7-/11--|
D|-x--x-x-5-5-5-5-5-/-9--9--9--9--9--9--9--9--9-x-x--x--5-5-5-5-/-9--|
A|-9--9-x-5-5-5-5-5-/-9--9--9--9--9--9--9--9--9-x-9--9--5-5-5-5-/-9--|
D|-0--0---5-5-5-5-5-/-9--9--9--9--9--9--9--9--9-x-0--0--5-5-5-5-/-9--|

e|----------------|
B|----------------|
G|--11-11-11-11---| 
D|---9--9--9--9---|
A|---9--9--9--9---|
D|---9--9--9--9---|


Bridge 2:
Lay your head down, rest your feet...
e|--------------------------------------------------------------------|
B|--------------------------------------------------------------------|
G|--------------------------------------------------------------------|
D|--9b---9-x-7-7-7-7-\-4-4-4-4-/-9-9-9-9-x-x--------------------------|
A|-11b--11-x-5-5-5-5-\-2-2-2-2-/-7-7-7-7-x-x--------------------------|
D|-11b--11-x-5-5-5-5-\-2-2-2-2-/-7-7-7-7-x-x--------------------------|

	Repeat 7x, then:

e|-------------------------|
B|-------------------------|
G|-------------------------|
D|--9b---9-x-7-7-7-7-\-----|
A|-11b--11-x-5-5-5-5-\-----|
D|-11b--11-x-5-5-5-5-\-----|

Breakdown: 

e|--------------------------------------|
B|--------------------------------------|
G|--------------------------------------|
D|-5--7-\-3--5--2-/-3--5--2-/-3---------|
A|-5--7-\-3--5--2-/-3--5--2-/-3-/-8--5--|
D|-5--7-\-3--5--2-/-3--5--2-/-3---------|
	
	Repeat 1x

Bridge 3:
Who would know...
e|--------------------------------------------------------------------|
B|--------------------------------------------------------------------|
G|--------------------------------------------------------------------| 
D|--------------------------------------------------------------------|
A|--------------------------------------------------------------------|
D|-12p-0*-0-h12-x-x-x-12p-0-0-h12-x-x-x-12p-0-0-12p-0-0-12p-0-0-12p-0-|  

e|---------------|
B|---------------|
G|---------------| 
D|---------------|
A|---------------|
D|0-h12-x-x-x----|

	Repeat 6x

Cuz the seeds were planted...
e|--------------------------|
B|--------------------------|
G|--7-7-x-9-9-x-11-11-x--x--| 
D|--5-5-x-7-7-x--9--9-x-11--|
A|--5-5-x-7-7-x--9--9-x--x--|
D|--5-5-x-7-7-x--9--9-x--9--|

e|--------------------------------------------------------------------|
B|--------------------------------------------------------------------|
G|--------------------------------------------------------------------| 
D|--------------------------------------------------------------------|
A|--------------------------------------------------------------------|
D|-12p-0*-0-h12-x-x-x-12p-0-0-h12-x-x-x-12p-0-0-12p-0-0-12p-0-0-12p-0-|  


e|---------------|
B|---------------|
G|---------------| 
D|---------------|
A|---------------|
D|0-h12-x-x-x----|

	Repeat 2x

Let the branches...
e|--------------------------|
B|--------------------------|
G|--7-7-x-9-9-x-11-11-x--x--| 
D|--5-5-x-7-7-x--9--9-x-11--|
A|--5-5-x-7-7-x--9--9-x--x--|
D|--5-5-x-7-7-x--9--9-x--9--|


Chorus: Light distortion

e|-------------------------------------------------------------------|
B|-------------------------------------------------------------------|
G|11-11-x-7-7-7-7-7-/11-11-11-11-11-11-11-11-11--11-11--7-7-7-7-/11--|
D|-x--x-x-5-5-5-5-5-/-9--9--9--9--9--9--9--9--9-x-x--x--5-5-5-5-/-9--|
A|-9--9-x-5-5-5-5-5-/-9--9--9--9--9--9--9--9--9-x-9--9--5-5-5-5-/-9--|
D|-0--0---5-5-5-5-5-/-9--9--9--9--9--9--9--9--9-x-0--0--5-5-5-5-/-9--|

e|----------------|
B|----------------|
G|--11-11-11-11---| 
D|---9--9--9--9---|
A|---9--9--9--9---|
D|---9--9--9--9---|

	Repeat 2x, then:

Heavy distortion for the following:
e|--------------------------------------------------------------------|
B|--------------------------------------------------------------------|
G|11-11-x-7-7-7-7-7-/11-11-11-11-11-11-11-11-11--11-11-9-9-9-9-9-\4-4-|
D|-x--x-x-5-5-5-5-5-/-9--9--9--9--9--9--9--9--9-x-x--x-x-x-x-x-x-\x-x-|
A|-9--9-x-5-5-5-5-5-/-9--9--9--9--9--9--9--9--9-x-9--9-7-7-7-7-7-\2-2-|
D|-0--0---5-5-5-5-5-/-9--9--9--9--9--9--9--9--9-x-0--0-x-x-x-x-x-\x-x-|


e|-----------|
B|-----------|
G|-4-4-4-4---| 
D|-x-x-x-x---|
A|-2-2-2-2---|
D|-x-x-x-x---|


e|-------------------------------------------------------------------|
B|-------------------------------------------------------------------|
G|11-11-x-7-7-7-7-7-/11-11-11-11-11-11-11-11-11--11-11--7-7-7-7-/11--|
D|-x--x-x-5-5-5-5-5-/-9--9--9--9--9--9--9--9--9-x-x--x--5-5-5-5-/-9--|
A|-9--9-x-5-5-5-5-5-/-9--9--9--9--9--9--9--9--9-x-9--9--5-5-5-5-/-9--|
D|-0--0---5-5-5-5-5-/-9--9--9--9--9--9--9--9--9-x-0--0--5-5-5-5-/-9--|

e|----------------|
B|----------------|
G|--11-11-11-11---| 
D|---9--9--9--9---|
A|---9--9--9--9---|
D|---9--9--9--9---|

Outro:

e|-------------------------------------------------------------------|
B|-------------------------------------------------------------------|
G|-----11-11-11-h14-14-14-14-14-14-14-14--14-14-14-14-14-14-14-11-11-| 
D|------0--0--0---0--0--0--0--0--0--0--0---0--0--0--0--0--0--0--0--0-|
A|------x--x--x---x--x--x--x--x--x--x--x---x--x--x--x--x--x--x--x--x-|
D|--12-12-12-12--12-12-12-12-12-12-12-12--12-12-12-12-12-12-12-12-12-|

e|--------------|
B|--------------|
G|--11-11-11----|
D|---0--0--0----|
A|---x--x--x----|
D|--12-12-12----|
 
	Repeat 6x, then:

e|--------------------------------------|
B|--------------------------------------|
G|--------------------------------------|
D|-5--7-\-3--5--2-/-3--5--2-/-3---------|
A|-5--7-\-3--5--2-/-3--5--2-/-3-/-8--5--|
D|-5--7-\-3--5--2-/-3--5--2-/-3---------|


Enjoy!

| /  slide up
| \  slide down
| h  hammer-on
| p  pull-off
| ~  vibrato
| +  harmonic
| x  Mute note
=======================================================================
Tap to rate this tab
# A B C D E F G H I J K L M N O P Q R S T U V W X Y Z