Song name
# A B C D E F G H I J K L M N O P Q R S T U V W X Y Z

Silversun Pickups - Its Nice To Know You Work Alone Acoustic tab

-------------------------------------------------------------------------------
	Its Nice To Know You Work Alone (acoustic)  - Silversun Pickups
-------------------------------------------------------------------------------
Tabbed by: MiklZz, this is my very first tab.
Email: Zeldafan962@yahoo.com

Tuning:DADGBe
Intro: 
e|----2------2-----2------2-----2b-------/3-------2-2-----------------------|
B|----2------2-----2------2-----2b-------/3---8---3-3---1-------------------|
G|----2------2-----2------2-----2b-------/3---8---2-2---0-------------------|
D|-------5------5------5-----5------5---------8---------2-------------------|
A|-------5------5------5-----5------5---------6---------3-------------------|
D|-------5------5------5-----5------5-------------------0-------------------|

e|----2------2-----2------2-----2b-------/3-------2-2-------2b--------------|
B|----2------2-----2------2-----2b-------/3---8---3-3---1---2b--------------|
G|----2------2-----2------2-----2b-------/3---8---2-2---0---2b--------------|
D|-------5------5------5-----5------5---------8---------2-------------------|
A|-------5------5------5-----5------5---------6---------3-------------------|
D|-------5------5------5-----5------5-------------------0-------------------|

Verse:
e|----3-3--3-3-3--3-3-3--3-3-3--3-3-3--3-3-3--3-3-3--3-3-3------------------|
B|----0-0--0-0-0--0-0-0--0-0-0--0-0-0--0-0-0--0-0-0--0-0-0------------------|
G|----4-4--4-4-4--4-4-4--4-4-4--4-4-4--4-4-4--4-4-4--4-4-4------------------|
D|----0-0--0-0-0--0-0-0--0-0-0--0-0-0--0-0-0--0-0-0--0-0-0------------------|
A|----x-x--x-x-x--x-x-x--x-x-x--x-x-x--x-x-x--x-x-x--x-x-x------------------|
D|----5-5--5-5-5--5-5-5--5-5-5--5-5-5--5-5-5--5-5-5--5-5-5------------------|

e|------------------------------3-3--3-3-3--3-3-3--3-3-3--------------------|
B|----8-8--8-8-8--8-8-8--8-8-8--0-0--0-0-0--0-0-0--0-0-0--------------------|
G|----8-8--8-8-8--8-8-8--8-8-8--4-4--4-4-4--4-4-4--4-4-4--------------------|
D|----8-8--8-8-8--8-8-8--8-8-8--0-0--0-0-0--0-0-0--0-0-0--------------------|
A|----6-6--6-6-6--6-6-6--6-6-6--x-x--x-x-x--x-x-x--x-x-x--------------------|
D|------------------------------5-5--5-5-5--5-5-5--5-5-5---------------------|

e|--------------------------------------------------------------------------|
B|----8-8--8-8-8--10-10-10--12-12-12--------12-12-12------------------------|
G|----8-8--8-8-8--10-10-10--12-12-12--------12-12-12------------------------|
D|----8-8--8-8-8--10-10-10--12-12-12-5-5-5--12-12-12-5-5-5-5----------------|
A|----6-6--6-6-6--8--8--8---10-10-10-5-5-5--10-10-10-5-5-5-5----------------|
D|-----------------------------------5-5-5-----------5-5-5-5-----------------|
Chorus:
e|--------------------------------------------------------------------------|
B|--------------------------------4-----------6-----------------------------|
G|--7--7--7-7-7--5--5-5-5--3--3-3-3-3--5--5-5-5-5---------------------------|
D|--5--5--5-5-5--3--3-3-3--1--1-1-1-1--3--3-3-3-3---------------------------|
A|--5--5--5-5-5--3--3-3-3--1--1-1-1-1--3--3-3-3-3---------------------------|
D|--5--5--5-5-5--3--3-3-3--1--1-1-1-1--3--3-3-3-3----------------------------|

e|--------------------------------------------------------------------------|
B|--------------------------------4-----------6-----------------------------|
G|--7--7--7-7-7--5--5-5-5--3--3-3-3-3--5--5-5-5-5---------------------------|
D|--5--5--5-5-5--3--3-3-3--1--1-1-1-1--3--3-3-3-3---------------------------|
A|--5--5--5-5-5--3--3-3-3--1--1-1-1-1--3--3-3-3-3---------------------------|
D|--5--5--5-5-5--3--3-3-3--1--1-1-1-1--3--3-3-3-3----------------------------|


e|----2------2-----2------2-----2b-------/3-------2-2-------2b--------------|
B|----2------2-----2------2-----2b-------/3---8---3-3---1---2b--------------|
G|----2------2-----2------2-----2b-------/3---8---2-2---0---2b--------------|
D|-------5------5------5-----5------5---------8---------2-------------------|
A|-------5------5------5-----5------5---------6---------3-------------------|
D|-------5------5------5-----5------5-------------------0-------------------|

************************************

| /   slide up
| \   slide down
| h   hammer-on
| p   pull-off
| ~   vibrato
| +   harmonic
| x   Mute note
| b   Bend
| pb  Pre-bend
| br  Bend release
| pbr Pre-bend release
| brb Bend release bend

Tap to rate this tab
 
# A B C D E F G H I J K L M N O P Q R S T U V W X Y Z