Song name
# A B C D E F G H I J K L M N O P Q R S T U V W X Y Z

Silversun Pickups - The Royal We tab

THIS IS MY FIRST TAB.I LEARNED IT BY EAR.
NOT SURE IF IT'S 100% CORRECT BUT IT'S SOUNDS RIGHT.

TUNING:DADGBe drop D

m= mute string
/= slide
b= bend string
h= hammer on 

INTRO 
e|---------------------------------------|
B|---------------------------------------|
G|-7-----3-------------------------------|
D|-7-----3-------------------------------|
A|-5-----1-------------------------------|
D|-0-----0-------------------------------|


 VERSE 1
e|--------------------------------------------------|
B|--------------------------------------------------|
G|--------------------------------------------------|
D|-7777777777777777--33333333--55555555-------------|
A|-5555555555555555--33333333--55555555-------------|
D|-0000000000000000--33333333--55555555-------------|



e|------------------------------------------------------------|
B|------------------------------------------------------------|
G|------------------------------------------------------------|
D|-77777777777777-0-7777777777777777-00-----------------------|
A|-55555555555555-0-5555555555555555-00-----------------------|
D|-00000000000000-0-0000000000000000-00-----------------------|



 PRE-CHORUS
e|-----------------------------------------------------------------|
B|-----------------------------------------------------------------|
G|----5-5-----------------------------5-5--------------------------|
D|-m-m-----x6--8888888888888888----m-m-----x4--8888888888888888----|
A|-5-5---------8888888888888888----5-5---------8888888888888888----|
D|-0-0---------8888888888888888----0-0---------8888888888888888----|




 CHORUS                
e|------------------------------------------------|
B|------------------------------------------------|
G|-------------------7777777777777777-------------|
D|-33333333-55555555-7777777777777777-------------|
A|-33333333-55555555-5555555555555555-------------|
D|-33333333-55555555-0000000000000000-------------|


e|---------------------------------------------------------------|
B|---------------------------------------------------------------|
G|-------------------7777777777777777777777777777777-------------|
D|-33333333-55555555-7777777777777777777777777777777-------------|
A|-33333333-55555555-5555555555555555555555555555555-------------|
D|-33333333-55555555-0000000000000000000000000000000-------------|



 
e|---------------------------------------|
B|---------------------------------------|
G|-7-----3-------------------------------|
D|-7-----3-------------------------------|
A|-5-----1-------------------------------|
D|-0-----0-------------------------------|


 VERSE 2
e|--------------------------------------------------|
B|--------------------------------------------------|
G|--------------------------------------------------|
D|-7777777777777777--33333333--55555555-------------|x4
A|-5555555555555555--33333333--55555555-------------|
D|-0000000000000000--33333333--55555555-------------|



e|------------------------------------------------------------|
B|------------------------------------------------------------|
G|------------------------------------------------------------|
D|-77777777777777-0-7777777777777777-00-----------------------|
A|-55555555555555-0-5555555555555555-00-----------------------|
D|-00000000000000-0-0000000000000000-00-----------------------|



 PRE-CHORUS
e|-----------------------------------------------------------------|
B|-----------------------------------------------------------------|
G|----5-5-----------------------------5-5--------------------------|
D|-m-m-----x6--8888888888888888----m-m-----x4--8888888888888888----|
A|-5-5---------8888888888888888----5-5---------8888888888888888----|
D|-0-0---------8888888888888888----0-0---------8888888888888888----|




 CHORUS                
e|------------------------------------------------|
B|------------------------------------------------|
G|-------------------7777777777777777-------------|
D|-33333333-55555555-7777777777777777-------------|
A|-33333333-55555555-5555555555555555-------------|
D|-33333333-55555555-0000000000000000-------------|


e|---------------------------------------------------------------|
B|---------------------------------------------------------------|
G|-------------------7777777777777777777777777777777-------------|
D|-33333333-55555555-7777777777777777777777777777777-------------|
A|-33333333-55555555-5555555555555555555555555555555-------------|
D|-33333333-55555555-0000000000000000000000000000000-------------|


 CHORUS ENDING
e|----------------------------------------------|
B|----------------------------------------------|
G|-7-7--5--3------------------------------------|
D|-7-7--5--3------------------------------------|
A|-5-5--3--1------------------------------------|
D|-0-0--0--0------------------------------------|



 RIFF
e|--------------------------------------------------------------|
B|--------------------------------------------------------------|
G|--------------------------------------------------------------|
D|---5---7-----10-----------------------------------------------|x4
A|----3---5----8------------------------------------------------|
D|-----3---5---8------------------------------------------------|



e|-------------------------------------------------------|
B|-------------------------------------------------------|
G|-------------7777777777777777--------------------------|
D|---5---7-----7777777777777777--------------------------|
A|----3---5----5555555555555555--------------------------|
D|-----3---5---0000000000000000--------------------------|



 SOLO
e|----------------------------------------------------------|
B|----------------------------------------------------------|
G|-10-12-14-9-12-14-b14-7/9-9-9h12-b12-9--------------------|
D|----------------------------------------------------------|x4
A|----------------------------------------------------------|
D|----------------------------------------------------------|



e|----------------------------------------------------------------|
B|----------------------------------------------------------------|
G|---------7777777777777777-5555555555555555-3333333333333333-----|
D|-333-555-7777777777777777-5555555555555555-3333333333333333-----|x2
A|-333-555-5555555555555555-3333333333333333-1111111111111111-----|
D|-333-555-0000000000000000-0000000000000000-0000000000000000-----|


e|---------------------------------------------------|
B|---------------------------------------------------|
G|---------------------------------------------------|
D|-33333333-55555555-33333333-5555555555555555-------|
A|-33333333-55555555-33333333-5555555555555555-------|
D|-33333333-55555555-33333333-5555555555555555-------|

   
      
e|----------------------------------------------|
B|----------------------------------------------|
G|----------------------------------------------|
D|-888-333-555---888-333-555---888-333-555------|
A|-888-333-555---888-333-555---888-333-555------|
D|-888-333-555---888-333-555---888-333-555------|


e|----------------------------------------------|
B|----------------------------------------------|
G|-777777777777-7-5--3-3------------------------|
D|-777777777777-7-5--3-3------------------------|
A|-555555555555-5-3--1-1------------------------|
D|-000000000000-0-0--0-0------------------------|



e|----------------------------------------------|
B|----------------------------------------------|
G|----------------------------------------------|
D|--333-555-888----333-555-888----333-555-------|
A|--333-555-888----333-555-888----333-555-------|
D|--333-555-888----333-555-888----333-555-------|


e|----------------------------------------------|
B|----------------------------------------------|
G|-777777777777--5555--33333333-----------------|
D|-777777777777--5555--33333333-----------------|
A|-555555555555--3333--11111111-----------------|
D|-000000000000--0000--00000000-----------------|




 OUTRO 
e|---------------------------------------------|
B|---------------------------------------------|
G|--------------88888888-----------------------|
D|---3---3---5--88888888-----------------------|x7
A|---3---3---5--88888888-----------------------|
D|-0-3-0-3-0-5--88888888-----------------------|



e|-----------------------------------------------------------------|
B|-----------------------------------------------------------------|
G|--------------8888888888888888888888888888888--------------------|
D|---3---3---5--8888888888888888888888888888888--------------------|
A|---3---3---5--8888888888888888888888888888888--------------------|
D|-0-3-0-3-0-5--8888888888888888888888888888888--------------------|



THAT'S THE WHOLE SONG.
PLEASE RATE AND COMMENT.
Tap to rate this tab
# A B C D E F G H I J K L M N O P Q R S T U V W X Y Z