Song name
# A B C D E F G H I J K L M N O P Q R S T U V W X Y Z

Silversun Pickups - Panic Switch tab

Intro
e|-------------------------------------|
B|-------------------------------------|
G|-------------------------------------|
D|--3----------1-----------------------|x4
A|-------1---4-------------------------|
E|-----1----4--------------------------|

Part 1

e|---------------------------------------------------------------|
B|---------------------------------------------------------------|
G|---------------------------------------------------------------|
D|--3--3--x-x-x-x*--3/6--6--6--x-x-x-x--6/8--8--8-x-x-x-x--8/10--|
A|---------------------------------------------------------------|
E|---------------------------------------------------------------|

e|-------------------------------------|
B|-------------------------------------|
G|-------------------------------------|
D|--10--10--x-x-x-x--10\---------------|
A|-------------------------------------|
E|-------------------------------------|

Then

e|--------------------------------------------------------------|
B|--------------------------------------------------------------|
G|--------------------------------------------------------------|
D|--3--3--x-x-x-x--3/6--6--6--x-x-x-x--6/8--8--8--x-x-x-x--8\---|
A|--------------------------------------------------------------|
E|--------------------------------------------------------------|

e|--------------------------------------------------------------|
B|--------------------------------------------------------------|
G|--------------------------------------------------------------|
D|-5--5--x-x-x-x--5\1--1----------------------------------------|  X's 2
A|--------------------------------------------------------------|
E|--------------------------------------------------------------|

*Dead Notes Can Also Be Played As Whatever Section Your in on the D
Ex. 3--3--x-x-x-x--3/ = 3--3--3-3-3-3--3/
I Prefer Using the Actual Note Though

Also For this Part the Picking is Down, Down, (Speed Up) Down, Up, Up, Down

Part 2

e|----------------------------------------------------------|
B|----------------------------------------------------------|
G|-x-x-13--13---13--13---15---12--12--12--------------------|
D|-x-x--x---x----x---x----x----x---x---x--------------------|
A|-x-x-11--11---11--11---13---10--10--10--------------------|
E|------------x---------------------------------------------|

e|----------------------------------------------------------|
B|----------------------------------------------------------|
G|-x-x-12--12---12--12---14---10--12--10--------------------|
D|-x-x--x---x----x---x----x----x---x---x--------------------| X's 2
A|-x-x-10--10---10--10---11----8--10---8--------------------|
E|------------x---------------------------------------------|

On the Second Time do this Instead of 14 10 12 10...

e|-------------------------------------------------------------|
B|-------------------------------------------------------------|
G|--15^bend as much as possible--------------------------------|
D|---x---------------------------------------------------------|
A|--13---------------------------------------------------------|
E|-------------------------------------------------------------|


The Strum Pattern is Down, Up Quickly and The Rest Are All Down (This Goes For All Notes

There's Not Really Any Guitar In the Verse But I Play This Anyway

Verse
e|--------------------------------------------------------------------------|
B|--------------------------------------------------------------------------|
G|-5-6-6-6-5-----3-------------------5-----6-6-6-5-8--6-5-----5-5-5-5-5-10--|
D|-x-x-x-x-x-3---x-5-----5-5-5-3-2---x-6---x-x-x-x-x--x-x-4-5-x-x-x-x-x--x--|
A|-3-4-4-4-3-x---1-x-----x-x-x-x-2---3-x---4-4-4-3-6--4-3-x-x-3-3-3-3-3--8--|
E|-----------1-----3-----3-3-3-1-0-----4------------------6-3---------------|

Pre-Chorus
e|-----------------------------------------------------------------|
B|-----------------------------------------------------------------|
G|-3--5--8-10-10-10-10---------------------------------------------|
D|-x--x--x--x--x--x--x---------------------------------------------|
A|-1--3--6--8--8--8--8---------------------------------------------|
E|-----------------------------------------------------------------|

Strum Pattern: Down, Down, Down, Up, Up, Up, Down For Each

Then

Chours
e|-------------------------------------------------------------------------|
B|-------------------------------------------------------------------------|
G|--6666666666666666-1010101010101010-8888888888888888-5555555555555555----|
D|--6666666666666666-1010101010101010-8888888888888888-5555555555555555----|
A|--4444444444444444-8888888888888888-6666666666666666-3333333333333333----|
E|-------------------------------------------------------------------------|

e|-------------------------------------------------------------------------|
B|-------------------------------------------------------------------------|
G|--6666666666666666-1010101010101010-5555555555555555-8888888888888888----|
D|--6666666666666666-1010101010101010-5555555555555555-8888888888888888--3-|
A|--4444444444444444-8888888888888888-3333333333333333-6666666666666666--3-|
E|-----------------------------------------------------------------------1-|

Then Play Part 2 Listen to the Song for the Order Also I Couldn't find Out the Solo or 
So That's Left Out

This Is My First Tab so Tell Me What You Think

Finally I Give Partial Credit to h0bb3s Thanx Again Hope You Enjoy!
Tap to rate this tab
# A B C D E F G H I J K L M N O P Q R S T U V W X Y Z