Silversun Pickups - Melatonin tab

Intro: (1x)
e:3-------3-------3-------3--2------3------3------3--2-|
B:3-------3-------3-------3--3------3------3------3--3-|
G:0-------2-------0-------2--2------2------0------2--2-|
D:0-------2-------2-------0--0------2------2------0--0-|
A:2-------0-------3-------0--0------0------3------0--0-|
E:3-------0-------0-------0--0------0------0------0--0-|

Verse:
e:---------------------------------------------|
B:---------------------------------------------|
G:---------------------------------------------|
D:5b---s7b---2b---4b---7b---2-5b---4b----------|
A:---------------------------------------------|
E:---------------------------------------------|x2

e:3-----------------------------------------------------------------------------------|
B:3-----------------------------------------------------------------------------------|
G:0-----------------------------------------------------------------------------------|
D:0----------7----5---5-----5-5h7p5-4------4h5p4-2--------4-5--2--5-5h7p5-4----2-4-5--|
A:2-------7----7----7----3---------------5----------3--0---------------------5--------|
E:3-----------------------------------------------------------------------------------|x2

Verse 2: (1x)
e:3-------3-------3-------3--2------3------3------3--2-|
B:3-------3-------3-------3--3------3------3------3--3-|
G:0-------2-------0-------2--2------2------0------2--2-|
D:0-------2-------2-------0--0------2------2------0--0-|
A:2-------0-------3-------0--0------0------3------0--0-|
E:3-------0-------0-------0--0------0------0------0--0-|

e:3-----------------------------------------------------------------------------------|
B:3-----------------------------------------------------------------------------------|
G:0-----------------------------------------------------------------------------------|
D:0----------7----5---5-----5-5h7p5-4------4h5p4-2--------4-5--2--5-5h7p5-4----2-4-5--|b
A:2-------7----7----7----3---------------5---------3-0----------------------5---------|
E:3-----------------------------------------------------------------------------------|

e:-------------------------------------------------------------------|
B:-------------------------------------------------------------------|
G:-------------------------------------------------------------------|
D:5--s7b--7--s10b---10h12-12b-s20s12s21---5-7-2--2-5-7-2---4h5p4--4--|
A:-------------------------------------------------------------------|
E:-------------------------------------------------------------------|

Interlude: (2x)
e:3-------3-------3-------3--2------3------3------3--2-|
B:3-------3-------3-------3--3------3------3------3--3-|
G:0-------2-------0-------2--2------2------0------2--2-|
D:0-------2-------2-------0--0------2------2------0--0-|
A:2-------0-------3-------0--0------0------3------0--0-|
E:3-------0-------0-------0--0------0------0------0--0-|

Outro: (Play until stop)
e:2--2b-------x---------x-|
B:3--3--------x---------x-|
G:2--2--------x---------4-|
D:0--0--------5---------5-|
A:0--0--------5---------5-|
E:0--0--------3---------3-|
Tap to rate this tab
 
# A B C D E F G H I J K L M N O P Q R S T U V W X Y Z