Silversun Pickups - The Royal We tab

rate and comment please
drop d tuning dadgbe

intro/verse:

-----------------------------------------------------------|
-----------------------------------------------------------|
-----------------------------------------------------------|
-7---3--777777777777777-------------------7777777777777777-|
-5---1--555555555555555-33333333-55555555-5555555555555555-|
------------------------33333333-55555555------------------|

-----------------------------------------------------------------------|
-----------------------------------------------------------------------|
-----------------------------------------------------------------------|
-7---3--777777777777777-------------------7777777777777777777777777777-|
-5---1--555555555555555-33333333-55555555-5555555555555555555555555555-|
------------------------33333333-55555555------------------------------|

pre chorus:

------------------    ------------------|
------------------    ------------------|
------5-5-----5-5- x3 ------------------|               repeat whole thing
------------------    ------------------|                      twice
--5-5-----5-5-----    -8888888888888888-|
------------------    -8888888888888888-|

chorus:

----------------------------------------------------------------------|
----------------------------------------------------------------------|
----------------------------------------------------------------------|
-------------------7777777777777777-------------------777777777777777-|
-33333333-55555555-5555555555555555-33333333-55555555-555555555555555-|
-33333333-55555555------------------33333333-55555555-----------------|

chorus ending:         bridge:

-------               ----------------------------------|
-------               ----------------------------------|
-5-5\3-               ----------------------------------|
-5-5\3-               --5---7---10-x5-7777777777777777--|
-3-3\1-               ---3---5---8----5555555555555555--|
-------               -3---5-----8----------------------|

solo:

----------------------------------------------------------------------|
----------------------------------------------------------------------|
-1010101010101010-12121212-141414-99999999-12121212-14141414b-7777777-|
----------------------------------------------------------------------|
----------------------------------------------------------------------|
----------------------------------------------------------------------|

------------------------|
------------------------|
-101010101010-12121212b-|x4
------------------------|
------------------------|
------------------------|

bridge 2:
--------------------------------------------------------------|
--------------------------------------------------------------|
--------------------------------------------------------------|x2
-----------7777777777777777-5555555555555555-3333333333333333-|
-3333-5555-5555555555555555-3333333333333333-1111111111111111-|
-3333-5555----------------------------------------------------|

---------------------------------------------|
---------------------------------------------|
---------------------------------------------|
---------------------------------------------|
-33333333-55555555-33333333-5555555555555555-|
-33333333-55555555-33333333-5555555555555555-|

------------------|
------------------|
------------------|x3 then chorus ending again
------------------|
-8-8-8-3333-5555--|
-8-8-8-3333-5555--|

---------------|
---------------|
---------------|
---------------|x3
-333-555-8-8-8-|
-333-555-------|

outro:

------------------------|
------------------------|
------------------------|
------------------------|x9
-0-3-0-3-0-3-0-55-8-8-8-|
-0-3-0-3-0-3-0-55-8-8-8-|

on the 9th do this:

------------------------------------------------------|
------------------------------------------------------|
------------------------------------------------------|
------------------77777777777777777777777777777777----|end
-0-3-0-3-0-3-0-55-55555555555555555555555555555555----|
-0-3-0-3-0-3-0-55-------------------------------------|

song structure:

intro
verse
pre chorus
chorus
verse
pre chorus
chorus
chorus ending
bridge
solo
bridge 2
chorus ending
outro
end

                                        enjoy!
Tap to rate this tab
 
# A B C D E F G H I J K L M N O P Q R S T U V W X Y Z