Song name
# A B C D E F G H I J K L M N O P Q R S T U V W X Y Z

Silversun Pickups - Well Thought Out Twinkles tab

-------------------------------------------------------------------------------
			     WELL THOUGHT OUT TWINKLES - Silversun Pickups
-------------------------------------------------------------------------------

Tabbed By : Kevin

Tuning:Standard

riff:
G|---------------------------------------------------------|
D|---------------------------------------------------------|
A|----------2---------------2------------2---------424--2--|
E|-9-90-9-2----9-90-9-2-2h4---4-9-90-9-2----9-90-9-------4-|

G|------------------------------------------------------------------------|
D|------------------------------------------------------------------------|
A|----------2---------------2------------2--------------------------------|
E|-9-90-9-2----9-90-9-2-2h4---4-9-90-9-2----9-90-9-90-9-0-9-9-9-9-9-9-9-9-|

chorus:
G|----------------------------------------------|
D|----------------------------------------------|
A|-------------------------------------7--7--7--|
E|-7-7-7-7-7-7-7-7-5-5-5-5-5-5-5-5-0-0-----0----|

G|-------------------------------------------------------------|
D|-------------------------------------------------------------|
A|-----------------------------------------------------7--7--7-|
E|-9-9-9-9-9-9-9-9-7-7-7-7-7-7-7-7-5-5-5-5-5-5-5-5-0-0-----0---|

G|-------------------------------------------------------------|
D|-------------------------------------------------------------|
A|-----------------------------------------------------7--7--7-|
E|-9-9-9-9-9-9-9-9-7-7-7-7-7-7-7-7-5-5-5-5-5-5-5-5-0-0-----0---|

G|-------------------------------------------------|
D|-------------------------------------------------|
A|-------------------------------------------------|
E|-9-9-9-9-9-9-9-9-7-7-7-7-7-7-7-7-5-5-5-5-5-5-5-5-|

riff:
G|---------------------------------------------------------|
D|---------------------------------------------------------|
A|----------2---------------2------------2---------424--2--|
E|-9-90-9-2----9-90-9-2-2h4---4-9-90-9-2----9-90-9-------4-|

G|------------------------------------------------------------------------|
D|------------------------------------------------------------------------|
A|----------2---------------2------------2--------------------------------|
E|-9-90-9-2----9-90-9-2-2h4---4-9-90-9-2----9-90-9-90-9-0-9-9-9-9-9-9-9-9-|

chorus:
G|----------------------------------------------|
D|----------------------------------------------|
A|-------------------------------------7--7--7--|
E|-7-7-7-7-7-7-7-7-5-5-5-5-5-5-5-5-0-0-----0----|

G|-------------------------------------------------------------|
D|-------------------------------------------------------------|
A|-----------------------------------------------------7--7--7-|
E|-9-9-9-9-9-9-9-9-7-7-7-7-7-7-7-7-5-5-5-5-5-5-5-5-0-0-----0---|

G|-------------------------------------------------------------|
D|-------------------------------------------------------------|
A|-----------------------------------------------------7--7--7-|
E|-9-9-9-9-9-9-9-9-7-7-7-7-7-7-7-7-5-5-5-5-5-5-5-5-0-0-----0---|

G|--------------------------------------------------------------------------------|
D|--------------------------------------------------------------------------------|
A|-----------------------------------------------------7--7----7--7----7--7----77-|
E|-9-9-9-9-9-9-9-9-7-7-7-7-7-7-7-7-5-5-5-5-5-5-5-5-0-0-----0-0-----0-0-----0-0----|

break:
G|---------------------------------------------------------|
D|---------------------------------------------------------|
A|---------------------------------------------------------|
E|-9-90-9-90-9-90-9-90-9-0-9-0-9-90-9-90-9-90-9-90-9-0-9-0-|

guitar and drums come in

G|---------------------------------------------------------| _
D|---------------------------------------------------------|  |
A|---------------------------------------------------------|  |
E|-9-90-9-90-9-90-9-90-9-0-9-0-9-90-9-90-9-90-9-90-9-0-9-0-|  |
                                                              |x3
G|---------------------------------------------------------|  |
D|---------------------------------------------------------|  |
A|---------------------------------------------------------| _|
E|-7-70-7-70-7-70-7-70-7/9-9\--5-50-5-50-5-50-5-50-5/7-7/9-|

G|---------------------------------------------------------|
D|---------------------------------------------------------|x3
A|---------------------------------------------------------|
E|-9-90-9-90-9-90-9-90-9-0-9-0-9-90-9-90-9-90-9-90-9-0-9-0-|

G|-----------------------------------------------------------|
D|-----------------------------------------------------------|
A|-----------------------------------------------------------|
E|-9-90-9-90-9-90-9-90-9-0-9-0-9-90-9-90-9-0-9-9-9-9-9-9-9-9-|

chorus:
G|----------------------------------------------|
D|----------------------------------------------|
A|-------------------------------------7--7--7--|
E|-7-7-7-7-7-7-7-7-5-5-5-5-5-5-5-5-0-0-----0----|

G|-------------------------------------------------------------|
D|-------------------------------------------------------------|
A|-----------------------------------------------------7--7--7-|
E|-9-9-9-9-9-9-9-9-7-7-7-7-7-7-7-7-5-5-5-5-5-5-5-5-0-0-----0---|

G|-------------------------------------------------------------|
D|-------------------------------------------------------------|
A|-----------------------------------------------------7--7--7-|
E|-9-9-9-9-9-9-9-9-7-7-7-7-7-7-7-7-5-5-5-5-5-5-5-5-0-0-----0---|

G|---------------------------------|
D|---------------------------------|
A|---------------------------------|
E|-9-9-9-9-9-9-9-9-7-7-7-7-7-7-7-7-|

G|-----------------|   |-------------------------------------------------|
D|-----------------|x6 |-------------------------------------------------|
A|-----------------|   |-------------------------------------------------|
E|-5-5-5-5-5-5-5-5-|   |-8-8-8-8-8-8-8-8-7-7-7-7-7-7-7-7-7-7-7-7-7-7-7-7-|

outro:
G|---------------------------------------------------------|
D|---------------------------------------------------------|x3
A|---------------------------------------------------------|
E|-9-90-9-90-9-90-9-90-9-0-9-0-9-90-9-90-9-90-9-90-9-0-9-0-|

G|----------------------------------------------------------|
D|----------------------------------------------------------|
A|----------------------------------------------------------|
E|-9-90-9-90-9-90-9-90-9-0-9-0-9-90-9-90-9-90-9-90-9-0-9999-|

| /  slide up
| \  slide down
| h  hammer-on
| p  pull-off
| ~  vibrato
| +  harmonic
| x  Mute note
===============================================================================
Tap to rate this tab
 
# A B C D E F G H I J K L M N O P Q R S T U V W X Y Z