Silversun Pickups - Future Foe Scenarios Acoustic tab

This is from their Acoustic Set album, I think the guitar in the song is out of
tune (it might just be me lol), so this may not sound right if you play with the
song, but I'm pretty sure the verse and chorus are correct.

**Some assembly required**

Standard Tuning



Intro/Verses:
Bend those chords whenever you hear it, it's kinda irregular.

E |-------------------------------------------------------|
B |-------------------------------------------------------|
G |--------------7--7--7--7--------------5--5--5--5--5----|
D |--------------x--x--x--x--------------x--x--x--x--x----|
A |--------------7--7--7--7--------------7--7--7--7--7----|
E |--0-----0-----------------------0----------------------|

----------------------------------------------------|
----------------------------------------------------|
----------------------------------------------------|
--------------7--7--7--7--------------5--5--5--5----|
--------------7--7--7--7--------------7--7--7--7----|
--------0-----------------------0-------------------|



Chorus:

Part A:
-------------------------------------------------------------------------------|
-----------------------------------------------------s7--7--7--7---------------|
--5-5-----5-----------5-5-----5-----------5-5-----5~~--------------------------|
--5-5-----5-----------5-5-----5-----------5-5-----5~~s7--7--7--7---------------|
--3-3-----3-----------3-3-----3-----------3-3-----3~~s5--5--5--5---------------|
-------------------------------------------------------------------------------|
x1 first time, x3 second time

Part B:
-------------------------------------------------------------------------------|
-----------------------------------------------------s9--9--9--9---------------|
--5-5-----5-----------5-5-----5-----------5-5-----5~~--------------------------|
--5-5-----5-----------5-5-----5-----------5-5-----5~~s9--9--9--9---------------|
--3-3-----3-----------3-3-----3-----------3-3-----3~~s7--7--7--7---------------|
-------------------------------------------------------------------------------|
x1 to finish off chorus every time


Bridge/After Chorus/Interlude thing:

Part A:
"...when the night is over and the clocks start churnin"
Not 100% on this, but I think he plays a C9* for a few bars and does a little 
improv off the verse riff.


Verse riff improv--not how he plays it but mine, you can make your own!
------------10-10-10-10-------------8--8--8--8-----------------------|
------------10-10-10-10-------------8--8--8--8-----------------------|
--7---7-----------------------5---------------------------9--9--9--9-|
--x---x-----------------------x-----------------------7---7--7--7--7-|
--7---7-----------------------7-----------------------7---7--7--7--7-|
---------------------------------------------------------------------|

------------------|
------------------|
----7--7--7--7----|
5---5--5--5--5----| Play all this (C9 + improv riff) x2 then Part B
------------------|



Part B:
"...keep our minds from learning"
C9* then D* back and forth.


*C9 and D chords for those who don't know
  C9   D
--3----2----||
--3----3----||
--0----2----||
--2---------||
--3---------||
------------||

-----------------------------------------------------------------------------
Hope all this helps! Any corrects/comments can be put below, I'll read them all.
-Andres
Tap to rate this tab
 
# A B C D E F G H I J K L M N O P Q R S T U V W X Y Z