Song name
# A B C D E F G H I J K L M N O P Q R S T U V W X Y Z

Silversun Pickups - Busy Bees tab

Busy Bees - Silversun Pickups
(Neck of the Woods)
Tabbed by R. Walsh

This is just the first part of the Intro, but I plan on finishing it tomorrow.
If you have any bits to add or corrections please comment and I'll add them in.

                             x3                           x many
e|-----------------------------|-------------------------------|
b|-----------------------------|-------------------------------|
G|-----------------------------|-------------------------------|
D|--3-----------5-----3-----3--|-3--1--3--1--3--1--3--1--3--1--|
A|-----1--4--------4-----1-----|-------------------------------|
E|-----------2-----------------|-------------------------------|
                                  ^There's maybe some bass notes here

My terrible draft of the chord section:

Guitar I
e|-----------------------------|---------------------------------|
b|-----------------------------|---------------------------------|
G|---------------------------------------------------------------|
D|-8-------6-----------------------------------------------------|
A|-8-------6-----------------------------------------------------|
E|-6-------4-----------------------------------------------------|

Guitar II
e|-----------------------------|---------------------------------|
b|-----------------------------|---------------------------------|
G|---------------------------------------------------------------|
D|----------4/6--------------------------------------------------|
A|----------4/6--------------------------------------------------|
E|---------------6-----------------------------------------------|
Tap to rate this tab
# A B C D E F G H I J K L M N O P Q R S T U V W X Y Z