Song name
# A B C D E F G H I J K L M N O P Q R S T U V W X Y Z

Silversun Pickups - The Royal We tab

e)------------------------------------------------|
b)------------------------------------------------|
g)------------------------------------------------|
d)7/3/7777777777777777/3/7777777777777777---------|
a)5/1/5555555555555555/1/55555555555555555853-----|
D)------------------------------------------------|

e)--------------------------------------------------|
b)--------------------------------------------------|
g)-------------------------------------------- 10---|
d)77777777/3/7777777777777777/3/7777777777777777----|
a)55555555/1/5555555555555555/1/5555555555555555----|
D)--------------------------------------------------|

e)---------------------------------------------------|
b)---------------------------------------------------|
g)------------10-10---55--55--55--558888888888888888-|
d)7777777777777777------------------8888888888888888-|
a)5555555555555555--55--55--55--55--8888888888888888-|
D)---------------------------------------------------|


e)---------------------------------|
b)---------------------------------|
g)---------------------------------|
d)--55--55--55--558888888888888888-|
a)----------------8888888888888888-|
D)55--55--55--55--8888888888888888-|

Chorus

e)----------------------------------------------------------------------|
b)----------------------------------------------------------------------|
g)----------------------------------------------------------------------|
d)3333333355555555777777777777777733333333555555557777777777777777------|
a)3333333355555555555555555555555533333333555555555555555555555555------|
D)3333333355555555----------------3333333355555555----------------------|


e)------------------------------------------------------------------|
b)------------------------------------------------------------------|
g)------------------------------------------------------------------|
d)77777777777777777~/3~/7777777777777777/3~/7777777777777777--------|
a)55555555555555555~/1~/5555555555555555/1~/55555555555555555853----|
D)------------------------------------------------------------------|

e)------------------------------------------------------------|
b)------------------------------------------------------------|
g)------------------------------------------------------10----|
d)7777777777777777/3~/7777777777777777/3~/7777777777777777----|
a)5555555555555555/1~/5555555555555555/1~/5555555555555555----|
D)------------------------------------------------------------|


e)--------------------------------------------------|
b)--------------------------------------------------|
g)------------10-10--55--55--55--558888888888888888-|
d)7777777777777777-----------------8888888888888888-|
a)5555555555555555-55--55--55--55--8888888888888888-|
D)--------------------------------------------------|

e)---------------------------------|
b)---------------------------------|
g)---------------------------------|
d)--55--55--55--558888888888888888-|
a)----------------8888888888888888-|
D)55--55--55--55--8888888888888888-|

e)--------------------------------------------------------------------|
b)--------------------------------------------------------------------|
g)--------------------------------------------------------------------|
d)3333333355555555777777777777777733333333555555557777777777777777----|
a)3333333355555555555555555555555533333333555555555555555555555555----|
D)3333333355555555----------------3333333355555555--------------------|

e)--------------------------------------------------------------------|
b)--------------------------------------------------------------------|
g)--------------------------------------------------------------------|
d)3333333355555555777777777777777777777777777777777777777777777777----|
a)3333333355555555555555555555555555555555555555555555555555555555----|
D)3333333355555555----------------------------------------------------|

e)-------------------------------------------------------------------|
b)-------------------------------------------------------------------|
g)-------------------------------------------------------------------|
d)5-5/3~-3--5-10~--3--5-10~--3--5-10~-3--5-10~-3--5-7777777777777777-|
a)3-3/1~--3--58~----3--58~----3--58~---3--58~---3--55555555555555555-|
D)------3--5--8~--3--5--8~--3--5--8~-3--5--8~-3--5-------------------|


e)----------------------------------------------------------------------------|
b)----------------------------------------------------------------------------|
g)10-12-14-9-12-14-7-10-------------------------------------------------------|
d)---------------------333555777777777777777755555555555555553333333333333333-|
a)---------------------333555555555555555555533333333333333331111111111111111-|
D)---------------------333555-------------------------------------------------|

e)--------------------------------------------------------------------------|
b)--------------------------------------------------------------------------|
g)--------------------------------------------------------------------------|
d)3335557777777777777777555555555555555533333333333333333333333355555555----|
a)3335555555555555555555333333333333333311111111111111113333333355555555----|
D)333555------------------------------------------------3333333355555555----|

e)----------------------------------------------------------------------|
b)----------------------------------------------------------------------|
g)----------------------------------------------------------------------|
d)333333335555555555555555-8-8-8/33335555-8-8-8/33335555-8-8-8/33335555-|
a)333333335555555555555555-8-8-8/33335555-8-8-8/33335555-8-8-8/33335555-|
D)333333335555555555555555-8-8-8/33335555-8-8-8/33335555-8-8-8/33335555-|

e)-------------------------------------------------------------|
b)-------------------------------------------------------------|
g)-------------------------------------------------------------|
d)77777777777777775-5/3-3-333335555-8-8-8/33335555-8-8-8333555-|
a)55555555555555553-3/1-1-133335555-8-8-8/33335555-8-8-8333555-|
D)-------------------------33335555-8-8-8/33335555-8-8-8333555-|

e)----------------------------------------------------|
b)----------------------------------------------------|
g)----------------------------------------------------|
d)777777777777555533333333303050508888888830305050----|
a)555555555555333311111111303050508888888830305050----|
D)------------------------303050508888888830305050----|

e)------------------|
b)------------------|
g)------------------|
d)8888888830305050--|
a)8888888830305050--|
D)8888888830305050--|                                   x6

e)-------------------------------------|
b)-------------------------------------|
g)-------------------------------------|
d)77777777777777777777777777777777~----|
a)55555555555555555555555555555555~----|
D)-------------------------------------|

Any changes email to jdugan9115@yahoo.com.  1st tab, bound to be a couple mistakes.
Tap to rate this tab
# A B C D E F G H I J K L M N O P Q R S T U V W X Y Z