Song name
# A B C D E F G H I J K L M N O P Q R S T U V W X Y Z

Silversun Pickups - Seasick tab

Not 100% on this but I figured since no
one has a tab for this out there might
as well give it a shot.
Any corrections are welcome.

Verse 1:
"What can we do"
e -----------|
B -----------|
G -----4-----|
d --3--2--6--|
A --3--2--6--|
D --3-----6--|
"To make this worse?
Where can we lay down
A blanket of fallen leaves
Too thin to sweep"

Interlude:
e ---------------------    ----------------------|
B -------------7-------    -------------7--------|
G --8h10-10-10---10-8--    --8h10-10-10---10-----|
d --------------------- x3 ------------------10--|
A ---------------------    ----------------------|
D ---------------------    ----------------------|
Play Twice

Repeat Verse 2:
"Scatter dry heaves"
e --------------|
B --------------|
G -----4--------|
d --3--2--6--8--|
A --3--2--6--8--|
D --3-----6--8--|
"My stomach s turning
Floorboards keep moving
the direction of casualties"
At least thatís how it seems."

Chorus:
"Don t make a sound..."
e -------------------------------|
B --6----8--9----8--6----8----9--|
G --X----X--X----X--X----X----X--|
d --6----8--6----8--6----8----8--|
A --4----6--8----6--4----6----6--|
D -------------------------------|
"it throws me off.
My center of gravity is lost.
Don t fake alarms, don t siren off,
Don t make a sound, it throws me off."

Intro+Guitar:
e -----------------------------|
B -----------------------------|
G --10-8--12--5----6--3--5-----|
d --10-8--12--5----6--3--5--3--| x2
A --8--6--10--3----4--1--3--3--|
D --------------------------3--|

Repeat Interlude:
"Branches enclose
These walls wonít hold.
Don t tell from the peril of
the roots of your family tree
Or let them see,
Cause it s buried too deep"

Chorus:

"Don t make a sound, it throws me off.
My center of gravity is lost.
Don t fake alarms, don t siren off,
Don t make a sound, it throws me off."

Bridge:
e --------------------------|
B --------------------------|
G --10--12--13----10--8--7--|
d --10--12--13----10--8--8--|
A --8---10--11----8---6--5--|
D --------------------------|
"If you only knew
Trying to do
Trying to do
Keep my head high
Remain upright
Remain upright
visualize
objects in sky
objects in sky"

e ----------|
B ----------|
G --3----5--|
d --3----5--|
A --1----3--|
D ----------|
"that this will lead us underground
they will face this underground
I will be there underground
waiting patient underground"

Repeat Verse 2:
"She sways over to me
Pointing overboard, but I can't see nothing
She sways over to me Shes still going on, but I cant hear anything
She sways over to me Pointing overboard, but I can't see nothing
She sways over to me Shes still going on, but I cant hear anything"

Chorus:

"Don t make a sound, it throws me off.
My center of gravity is lost.
Don t fake alarms, don t siren off,
Don t make a sound, it throws me off."

Outro:

e -------------|
B -------------|
G -------------|
d --8h10----8--|
A --8-------6--|
D -------------|
Tap to rate this tab
 
# A B C D E F G H I J K L M N O P Q R S T U V W X Y Z