Song name
# A B C D E F G H I J K L M N O P Q R S T U V W X Y Z

Silversun Pickups - The Pit Acoustic tab

Intro
Listen for strumming pattern and can mute the other strings::
e|-------------------------------------------|
B|-------------------------------------------|
G|-------------------------------------------|
D|----------------7--9-----------------------|
A|-7--10--------0-----7------------5--7------|
E|-0--------10-------------8--7--------------|

Instrumental before singing verse:
e|-0------x------0------x-------x------x------0--|
B|-8------7------8------7------5------7------8---|
G|-x------x------x------x------x------x-------x--|
D|-9------7------9------7------5------7------9---|
A|-7------5------7------5------3------5------7---|
E|-0-------------0-----------------------------0-|

Verses:
All power chords except Eminor played first position:

Eminor--------------------------------------------G----D-----------
Im marching through the branches in a fit of wanderlust
A------------------------------------------------B---------------------E(12th fret)
To see you in a black hole reaching out for something just
C--------------------B-------------D--------------E minor(7th fret)
Silhouettes of neighbors dancing in disgust

Repeat

Eminor(first position strum once)
I have a feeling you might
Eminor
Feeling you might

Chorus:
Play full chords
G
Somebody somewhere
B minor                        D
Will clean out your wounds
A minor
With dirty fingers
E minor
Well bury the lie

G
Somebody somewhere
B minor                D
Will clean out your wounds

e|------------------------------------------------------------|
B|------------------------------------------------------------|
G|--12------11------9------14------12------11------9----------|
D|---x--------x-------x-------x--------x--------x-------x-----|
A|--10-------9-------7------12------10-------9-------7--------|
E|------------------------------------------------------------|
       We'll bury the lie.        We'll bury the lie

Repeat instrumental then back into verse
Tap to rate this tab
# A B C D E F G H I J K L M N O P Q R S T U V W X Y Z