Song name
# A B C D E F G H I J K L M N O P Q R S T U V W X Y Z

Silversun Pickups - Catch And Release tab

SILVERSUN PICKUPS - CATCH AND RELEASE
Tabbed by MattyD


Verse:

e|--------------------------------------------------------------------------|
B|--------------------------------------------------------------------------|
G|--------------------------------------------------------------------------|
D|-2------------(5)--9------------------------------------------------------|
A|-2--2/3-2--2/4-7---7------------------------------------------------------|
E|-0--2/3-3--3/5-7---7------------------------------------------------------|


Chorus:
   
 |-----Play Twice-----|     |-----Third Time---->
   C         G    D          C         G    Bm   Main Riff...
e|--------------------------------------------------------------------------|
B|-1--1-1--1-0--0-3--3-------1--1-1--1-0--0-0--0----------------------------|
G|-0--0-0--0-0--0-0--0-------0--0-0--0-0--0-4--4----------------------------|
D|-2--2-2--2-0--0-4--4-------2--2-2--2-0--0-4--4-2------------(5)--9--------|
A|-3--3-3--3-2--2-5--5-------3--3-3--3-2--2-2--2-2--2/3-2--2/4-7---7--------|
E|-----------3--3----------------------3--3------0--2/3-3--3/5-7---7--------|


Bridge:

[Em C  G  Bm D] x1
[C  Em Am Bm D] x3


----Verse 1----
Part of me
Want to live in a fantasy
Quietly
Show you everything you'll ever need

I hope you'll take it
I know you're faking just a little bit
Come on and taste it
Just get excited cuz you're giving in


----Chorus----
Come and see
How the wind in your hair will feel differently
Catch and release
The lure above

Who...


----Verse 2----
Here we are
In the bathwater overflow
Later on
Don't say I didn't tell you so

Maybe I didn't but you're taking it
Knew you were faking just a little bit
Now that you'll taste it
No need to fight it cuz you're giving in


----Chorus----
Follow me
Down the streams of sweat on your body
Can't believe
The lure was enough

Do you see
How the wind in your hair now feels differently
Catch and release the lure above


----Bridge----
    Em
Who knows
         C
How this feeling grows
             G
Was it truly worth
                Bm       D
Truly worth the starting

    C
Who knows
        Em
Why the engine's blown
                Am
Hope it's truly worth
                Bm      D
Truly worth the parting

[C Em Am Bm D] x2


----Chorus----
Follow me
Down the streams of sweat on your body
Can't believe
The lure was enough

Do you see
How the wind in your hair now feels differently
Catch and release the lure above

Guess the lure was enough
Yes the lure was enough
Yes the lure was enough
Tap to rate this tab
 
# A B C D E F G H I J K L M N O P Q R S T U V W X Y Z