Song name
# A B C D E F G H I J K L M N O P Q R S T U V W X Y Z

Silversun Pickups - Three Seed tab

-------------------------------------------------------------------------------
                             Three Seed - Silversun Pickups
-------------------------------------------------------------------------------

Tabbed by: LeFlo
Tuning: Standard EADGBe

I'll use this video: http://www.youtube.com/watch?v=hanZFIVvRiw
for time references.
_________________________

INTRO AND VERSE 1

(0:02) Chord progression (nearly) throughout the song:

e|---------------------------------------------|
B|-3-----7-----12------------------------------| I play it on guitar, neck pickup,
G|---------------------------------------------| with delay and reverb.
D|-4-----7-----12------------------------------|
A|-2-----5-----10------------------------------|
E|---------------------------------------------|


CHORUS 1

(0:54) Riff 1

e|---14----0----17----14----0-----|---15---14---12-----------(14)-(14)-------|
B|-----15---15----15----15---15---|-----0----0----0---15---------------------|
G|-16----16---16----16----16---16-|-16---16---16----16----16-----------------|
D|--------------------------------|------------------------------------------|
A|--------------------------------|------------------------------------------|
E|--------------------------------|------------------------------------------|

e|---14----0----17----14----0-----|---15----14---12-----15h17--14--14--------|
B|-----15---15----15----15---15---|-----0-----0----0-------------------------|
G|-16----16---16----16----16---16-|-16----16---16---16-----------------------|
D|--------------------------------|------------------------------------------|
A|--------------------------------|------------------------------------------|
E|--------------------------------|------------------------------------------|

e|---14----0----17----14----0-----|---15---14---12-----------(14)-(14)-------|
B|-----15---15----15----15---15---|-----0----0----0---15---------------------|
G|-16----16---16----16----16---16-|-16---16---16----16----16-----------------|
D|--------------------------------|------------------------------------------|
A|--------------------------------|------------------------------------------|
E|--------------------------------|------------------------------------------|

e|---14----0----17----14----0-----|------------------------------------------|
B|-----15---15----15----15---15---|------------------------------------------|
G|-16----16---16----16----16---16-|-16-16-16-16-16-16-16-16------------------|
D|--------------------------------|------------------------------------------|
A|--------------------------------|------------------------------------------|
E|--------------------------------|------------------------------------------|


VERSE 2

(1:20) Riff 2

e|------------------|--------------|     e|-------------------|--------------|
B|------------------|--------------|     B|-------------------|--------------|
G|------------------|--------------|     G|-------------------|--------------|
D|-----4---7-7--7br-|--------------| x2  D|------4---7-7--7br-|--------------| x1
A|-0h2--2/-5-5--5br-|-5------------|     A|-0h2---2/-5-5--5br-|-5------5/7---|
E|------------------|-3------------|     E|-------------------|-3------3/5---|

e|-------------------|-------------|
B|-------------------|-------------|
G|-------------------|-------------|
D|------4---7-7--7br-|-------------| x1
A|-0h2---2/-5-5--5br-|-5-----------|
E|-------------------|-3-----------|

The whole thing x2.
Then:

e|----|------------------|---------|
B|----|------------------|---------|
G|----|------------------|---------|
D|----|----4---7-7--7br--|----4~---|
A|----|0h2-2-2/-5-5--5br-|-5--5~---|
E|-3h5|------------------|-3--3~---|


CHORUS 2

(2:21) Riff 1 and 2 together:

e|---14----0----17----14----0-----|---15---14---12-----------(14)-(14)-------|
B|-----15---15----15----15---15---|-----0----0----0---15---------------------|
G|-16----16---16----16----16---16-|-16---16---16----16----16-----------------|
D|--------------------------------|------------------------------------------|
A|--------------------------------|------------------------------------------|
E|--------------------------------|------------------------------------------|
                                                                                x2
e|---14----0----17----14----0-----|---15----14---12-----15h17--14--14--------|
B|-----15---15----15----15---15---|-----0-----0----0-------------------------|
G|-16----16---16----16----16---16-|-16----16---16---16-----------------------|
D|--------------------------------|------------------------------------------|
A|--------------------------------|------------------------------------------|
E|--------------------------------|------------------------------------------|


BRIDGE

(2:45)

e|----------------|---------------|----------------|--0--0--0--0--0----------|
B|----------------|---------------|----------------|---3--3--3--3--3---------|
G|----------------|---------------|----------------|-4--4--4--4--4-----------|
D|-7--7----9~---9-|-4--4----------|----------------|-------------------------|
A|-5--5----7~---7-|-2--2----4--44-|-4/5--5---2--2--|-------------------------|
E|----------------|---------2--22-|-2/3--3---0--0--|-------------------------|

e|----------------|---------------|----------------|
B|-7--7----8----8-|-3--3---11-11--|-12-12--14--14--|
G|----------------|---------------|----------------|
D|-7--7----9~---9-|-4--4---11-11--|-12-12--14--14--|
A|-5--5----7~---7-|-2--2---9--9---|-10-10--12--12--|
E|----------------|---------------|----------------|


LEAD/SOLO THINGY

(3:08)

e|---------------------|---------------------|---------------------|
B|--03-05-07-08-010/12-|--03-05-07-08-010/12-|--03-05-07-08-010/12-|
G|---------------------|---------------------|---------------------|
D|---------------------|---------------------|---------------------|
A|---------------------|---------------------|---------------------|
E|---------------------|---------------------|---------------------|

e|---------------------|---------------------|---------------------|
B|----03-05-07-08-07\5-|--03-05-07-08-010/12-|--03-07-05-03-08\7---|
G|---------------------|---------------------|---------------------|
D|---------------------|---------------------|---------------------|
A|---------------------|---------------------|---------------------|
E|---------------------|---------------------|---------------------|

e|--------------------|-----------------------|
B|-03-05-07-08-010/12-|-12~--12~--12-12-12-12-|
G|--------------------|-----------------------|
D|--------------------|-----------------------|
A|--------------------|-----------------------|
E|--------------------|-----------------------|


INTERLUDE

(3:36)

e|-------------------------------------------------------0-------------------|
B|----3--------7---7---7-7br-------12---10---------------10\-----------------|
G|-------4---------6-----6br-------------------------------------------------|
D|---------4---7---7---7-7br-------------------12~-------12\-----------------|
A|--2----------5---5---5-5br-----10---10----10-----------10\-----------------|
E|---------------------------------------------------------------------------|
                                                                                x2
e|---------------------------------------------------------------------------|
B|----3--------7---7---7-7br-------12---10----10h12--10----------------------|
G|-------4---------6-----6br-------------------------------------------------|
D|---------4---7---7---7-7br----------------------------12rb--------12\------|
A|--2----------5---5---5-5br----10---10----10-----------------------10\------|
E|---------------------------------------------------------------------------|

BREAK

(4:11)

   < fade in
e|--------------------|
B|-7+-*---------------| *natural harmonics
G|--------------------|
D|-9+-*---------------|
A|--------------------|
E|--------------------|

(4:15) Rest (delayed chords still playing)


CHORUS 3 AND OUTRO

(4:40) Riff 1 and 2 together:

e|---14----0----17----14----0-----|---15---14---12-----------(14)-(14)-------|
B|-----15---15----15----15---15---|-----0----0----0---15---------------------|
G|-16----16---16----16----16---16-|-16---16---16----16----16-----------------|
D|--------------------------------|------------------------------------------|
A|--------------------------------|------------------------------------------|
E|--------------------------------|------------------------------------------|
                                                                                x2
e|---14----0----17----14----0-----|---15----14---12-----15h17--14--14--------|
B|-----15---15----15----15---15---|-----0-----0----0-------------------------|
G|-16----16---16----16----16---16-|-16----16---16---16-----------------------|
D|--------------------------------|------------------------------------------|
A|--------------------------------|------------------------------------------|
E|--------------------------------|------------------------------------------|

e|---14----0----17----14----0-----|---15---14---12-----------(14)-(14)-------|
B|-----15---15----15----15---15---|-----0----0----0---15---------------------|
G|-16----16---16----16----16---16-|-16---16---16----16----16-----------------|
D|--------------------------------|------------------------------------------|
A|--------------------------------|------------------------------------------|
E|--------------------------------|------------------------------------------|

e|---14----0----17----14----0-----|---15---14---12------------|
B|-----15---15----15----15---15---|-----0----0----0---15------|
G|-16----16---16----16----16---16-|-16---16---16----16----16--|
D|--------------------------------|---------------------------|
A|--------------------------------|---------------------------|
E|--------------------------------|---------------------------|

e|---15----14---12-----15h17--14--14-|------|
B|-----0-----0----0------------------|-15~--|
G|-16----16---16---16----------------|------|
D|-----------------------------------|------|
A|-----------------------------------|------|
E|-----------------------------------|------|

__________________________________

That's it. I tried to detail most of it and I think it's very accurate to the song, at 
least that's how I play it.
For any remarks, mistakes, additions, please leave a comment :)
Tap to rate this tab
# A B C D E F G H I J K L M N O P Q R S T U V W X Y Z