Song name
# A B C D E F G H I J K L M N O P Q R S T U V W X Y Z

Silversun Pickups - Make Believe tab

Make Believe - Silversun Pickups


Standard tuning


|-----------------------------|
|-----------------------------|
|-----------------------------|
|---4-0---4-0---4--0---4-0----| x 4
|-2-----0---------------------|
|-------------3------0--------|

Verse:                              
|-------------------------------------------------------------------|
|-------------------------------------------------------------------|
|-------------------------------------------------------------------|
|---4-0---4-0---4-0---4-0----4-0---4-0---4-0---4-0---4-0---4-0---4-0| x 2
|-2-----0------------------2-----0----------------------------------|
|-------------3-----0------------------3-----0-----0-----0-----0----|
                        

|-------------------------------------|
|-------------------------------------|
|-----4-------4--------4-------4------|
|---4---4---4---4----4---4---4---4----|  x 3
|-2-------0---------------------------|
|------------------3-------0----------|


|-----------------------------|
|-----------------------------|
|-----------------------------|
|---4-0---4-0---4--0---4-0----|
|-2-----0---------------------|
|-------------3------0--------|


-- Repeat Verse Section --


Pre-chorus:                   (lost my mind)
|------------------------------------------|
|------------------------------------------|
|------------------------------------------| 
|---0-0---0-0---0-0---0---0---0-0-2-2-2----|
|-----------------------0---0--------------|
|-0-----3-----3-----3----------------------|


Chorus 1:
|----------------------------------------|
|----------------------------------------|
|----------------------------------------|
|-5---9---4---5--2---5---9---4---5--2----|
|-5---9---4---5--2---5---9---4---5--2----|
|-3---7---2---3--0---3---7---2---3--0----|


|---------------------------|
|--10-7---7---10-7---7------|
|-------9----------9--------|
|-----------9----------9----|
|---------------------------|
|---------------------------|


-- Repeat Verse Sections --


Chorus 2:
|----------------------------------------|
|----------------------------------------|
|----------------------------------------|
|-5---9---4---5--2---5---9---4---5--2----|
|-5---9---4---5--2---5---9---4---5--2----|
|-3---7---2---3--0---3---7---2---3--0----|

|-----------------------------------------------|
|-----------------------------------------------|
|-----------------------------------------------|
|-5---9---4---5--2------5---9---4---5--7---2----|
|-5---9---4---5--2------5---9---4---5--7---2----|
|-3---7---2---3--0------3---7---2---3--5---0----|


Solo:
|---------------------------------------------------------------------------------------------------|
|-10-10~~~>12----10-12----10-12----10-12-10~12------------------------------------------------------|
|-------------11-------11-------11------------------9-9-9/11-------12-12-12/14-11-11-9-9-9/11----9--|
|----------------------------------------------9-12----------12-12----------------------------12----|
|---------------------------------------------------------------------------------------------------|
|---------------------------------------------------------------------------------------------------|

|--------------------------------------|
|--------------------------------------|
|-----------------------9-9-9/11-------|
|-12--11--12--11---9-12----------12-12-|
|--------------------------------------|
|--------------------------------------|

|----------------------------------------------|
|----------------------------------------------|
|-12-12-12/14-11-11-9-9--9/11----9-------------|
|-----------------------------12---12-11-12-11-|
|----------------------------------------------|
|----------------------------------------------|

repeat 2x:                                                  (or chords)
|-------------------------------------------------------------------------|
|-------------------------------------------------------------------------|
|----------9-------------------------------------------------7---9--------|
|----12------9-9-12-/14-/15-/16-12-9--9-12-/14-/15-/16-12--5-7-7-9-9-9----|
|-10----12-------------------------------------------------5-5-7-7-9-9----|
|----------------------------------------------------------3---5---7-7----|


                                 (lost my mind)      
|--------------------------------------------|
|--------------------------------------------|
|-------4--4--------7--7-------9-----11~~~9--|
|-5--5--4--4--7--7--7--7--7-7--9--9----------|
|-5--5--2--2--7--7--5--5--7-7--7--9----------|
|-3--3--------5--5--------5-5-----7----------|


Chorus 3:
|----------------------------------------|
|----------------------------------------|
|----------------------------------------|
|-5---9---4---5--2---5---9---4---5--2----|
|-5---9---4---5--2---5---9---4---5--2----|
|-3---7---2---3--0---3---7---2---3--0----|


|-------------------------------------------|
|-------------------------------------------|
|-------------------------------------------|
|-5---9---4---5--2---5---9---4---5--7-------|
|-5---9---4---5--2---5---9---4---5--7-------|
|-3---7---2---3--0---3---7---2---3--5-------|
                     
                      x 4
|-------------------|-------------------------------------|
|-------------------|-------------------------------------|
|-------------------|-----4-------4--------4-------4------| 
|-------------------|---4---4---4---4----4---4---4---4----|
|-7-7-7s8-7-7-7-7s8-|-2-------0---------------------------|
|-------------------|------------------3-------0----------|

Tap to rate this tab
 
# A B C D E F G H I J K L M N O P Q R S T U V W X Y Z