Song name
# A B C D E F G H I J K L M N O P Q R S T U V W X Y Z

Silversun Pickups - Dream At Tempo 119 tab

Tabbed by: Ryan Atkinson
Email: rratky11@yahoo.ca

Tuning: Standard

e|--12-------12-------12--------12--------15-------15------------------------|
B|-----13-------13-------13--------13--------13------------------------------|
G|--------14-------14-------14--------14--------14---------------------------|
D|---------------------------------------------------------------------------|
A|---------------------------------------------------------------------------|
E|---------------------------------------------------------------------------|x2

e|--13-------13-------13-------13--------15-------15-------------------------|
B|-----13-------13-------13-------13--------13-------------------------------|
G|--------14-------14-------14-------14--------14----------------------------|
D|---------------------------------------------------------------------------|
A|---------------------------------------------------------------------------|
E|---------------------------------------------------------------------------|x2

^repeat both


e|---------------------------------------------------------------------------|
B|---------------------------------------------------------------------------|
G|---------------------------------------------------------------------------|
D|--3-3-3-3-3-3-3-3-3-3-3-3-3-3-3-3-3-3-3-3-3-3-3-3----5-5-5-/-7-------------|
A|--3-3-3-3-3-3-3-3-3-3-3-3-3-3-3-3-3-3-3-3-3-3-3-3----5-5-5-/-7-----7^------|
E|--1-1-1-1-1-1-1-1-1-1-1-1-1-1-1-0-1-1-1-1-1-1-1-1----3-0-3-/-5-------------|


e|---------------------------------------------------------------------------|
B|---------------------------------------------------------------------------|
G|----------------------9-9-9h10-9----------------------------------9-12-9---|
D|-10-10h12-10-10h12-10------------12-10-10-10-10h12-10-10h12-10/12--------12|
A|---------------------------------------------------------------------------|
E|---------------------------------------------------------------------------|


e|---------------------------------------------------------------------------|
B|---------------------------------------------------------------------------|
G|---------------------------------------------------------------------------|
D|-10-10h12-10-10h12-10-------10-10h12-10-10h12-10---------------------------|
A|----------------------12-8-----------------------12-8----------------------|
E|---------------------------------------------------------------------------|
  
   

e|---------------------------------------------------------------------------|
B|---------------------------------------------------------------------------|
G|---------------------------------------------------------------------------|
D|--7~------9~-------10~-----------------------------------------------------|
A|---------------------------------------------------------------------------|
E|---------------------------------------------------------------------------|



| /  slide up
| \  slide down
| h  hammer-on
| p  pull-off
| ~  vibrato
| +  harmonic
| x  Mute note
===============================================================================
Tap to rate this tab
# A B C D E F G H I J K L M N O P Q R S T U V W X Y Z