Song name
# A B C D E F G H I J K L M N O P Q R S T U V W X Y Z

Silversun Pickups - Creation Lake tab

song      : creation lake
artist    : silversun pickups
tabbed by : oneshotnothing


standard tuning


intro/verse  (the only difference is that in the verses he plays an A
              on the second beat of the third measure, shown here in ()'s )

e--|--------------------------------|--------------------------------|
b--|0---------------0---------------|1-------------------------------|
g--|0---------------2---------------|2---------------------------0---|
d--|2---------------2---------------|3-------------------------------|
a--|2---------------0---------------|3-------------------------------|
E--|0-------------------------------|1-------------------------------|
    ^   ^   ^   ^   ^   ^   ^   ^   |^   ^   ^   ^   ^   ^   ^   ^   |
    1       2       3       4       |1       2       3       4       |


e--|--------------------------------|--------------------------------|
b--|--------------------------------|--------------------------1-----|
g--|0h2----(2)------2---0-------0---|0-----------------------0---2---|
d--|--------------------------------|2-------------------0h2-----3---|
a--|--------------------------------|3---------------------------3---|
E--|--------------------------------|----------------------------1---|
    ^   ^   ^   ^   ^   ^   ^   ^   |^   ^   ^   ^   ^   ^   ^   ^   |
    1       2       3       4       |1       2       3       4       |


e--|--------------------------------|--------------------------------|
b--|--------------------------------|--------------------------------|
g--|----------------------------0---|0h2-----2-------2---0-------0---|
d--|--------------------------------|--------------------------------|
a--|--------------------------------|--------------------------------|
E--|--------------------------------|--------------------------------|
    ^   ^   ^   ^   ^   ^   ^   ^   |^   ^   ^   ^   ^   ^   ^   ^   |
    1       2       3       4       |1       2       3       4       |


chorus


e--|--------------------------------|----0-----------0---------------|
b--|1-------1-----1---------1-------|--------1-----------1-------1---|
g--|2-------2-----2-2-------2---0---|0-----------0-----------0---2---|
d--|3-------3-----3-3-------3---0---|2---------------------------3---|
a--|3-------3-------3-------3---3---|3---------------------------3---|
E--|1-------1-------1-------1---1---|----------------------------1---|
    ^   ^   ^   ^   ^   ^   ^   ^   |^   ^   ^   ^   ^   ^   ^   ^   |
    1       2       3       4       |1       2       3       4       |


e--|--------------------------------|--------------------------------|
b--|--------------------------------|--------------------------------|
g--|----------------------------0---|0h2-----2-------2---0-------0---|
d--|--------------------------------|--------------------------------|
a--|--------------------------------|--------------------------------|
E--|--------------------------------|--------------------------------|
    ^   ^   ^   ^   ^   ^   ^   ^   |^   ^   ^   ^   ^   ^   ^   ^   |
    1       2       3       4       |1       2       3       4       |


after the first chorus, strum the chords
this should give you a pretty good basis for the whole song.
end on F.

Tap to rate this tab
# A B C D E F G H I J K L M N O P Q R S T U V W X Y Z