Song name
# A B C D E F G H I J K L M N O P Q R S T U V W X Y Z

Simian - Round And Around tab

 Band: Simian
 Song: Round and Around

 Tabbed by: Chris Lane
 Email: pudding_lane@hotmail.com

 Tuning: Standard



e|--------5------------------------------------------------------------------|
B|----5-7---7-5--------------------------------------------------------------|
G|--6------------------------------------------------------------------------|
D|---------------------------------------------------------------------------|
A|---------------------------------------------------------------------------|
E|---------------------------------------------------------------------------|

e|---------------------------------------------------------------------------|
B|---------------------------------------------------------------------------|
G|---------------------------------------------------------------------------|
D|---------------------------------------------------------------------------|
A|--4--5--4--0--2--------0---------------------------------------------------|
E|-----------------1--2------------------------------------------------------|



 Round and around the serpents tail grows
 Out in the fields turn into gold
 Nothing gets said and nothing grows old
 Round and around the serpents tail grows
Tap to rate this tab
# A B C D E F G H I J K L M N O P Q R S T U V W X Y Z