Song name
# A B C D E F G H I J K L M N O P Q R S T U V W X Y Z

Simmering - Coincidences tab

Standard Tuning: E B G D A E


Intro (Roughly tabbed out, fill in the blanks):

        Am          C             Daug    C      Am
E|------0--------------------------------------0-0--0--3p0----|
B|-------1---0-----3p1--------------3-----1----1-1--1-----1-1-|
G|----2-----------0----0--0--------0-0---0-0---2-2--2------2--|
D|---2-----------2------2---------4-----2------2-2--2---------|
A|--0------2----3-------------3/5------3-------0-0--0---------|
E|------------------------------------------------------------|
       C           Daug         Am                F
E|----------------------------0-0--0--0-0-0--0---1-1--1--1-1--1-|
B|-----3p1----------3-----1---1-1--1--0h1-1--1---1-1--1--1-1--1-|
G|----0---0-0------0-0---0-0--2-2--2--0h2-2--2---2-2--2--2-2--2-|
D|---2-----2------4-----2-----2-2--2--0h2-2--2---3-3--3--3-3--3-|
A|--3----------3/5-----3------0-0--1--0-1-1--0---3-3--3--3-3--3-|
E|------------------------------------0----------1-1--1--1-1--1-|


Verse chords: |Am F|

Bridge: |Am E/Am G Em| |Am E/Am E7|
Tap to rate this tab
# A B C D E F G H I J K L M N O P Q R S T U V W X Y Z