Song name
# A B C D E F G H I J K L M N O P Q R S T U V W X Y Z

Simon And Garfunkel - Kathys Song tab

-------------------------------------------------------------------------------
                             Kathy's Song - Simon And Garfunkel (Paul Simon)
-------------------------------------------------------------------------------
Tabbed by: Rohith Gopal
E-mail: ro.gopal@yahoo.com

Tuning: eBGDAE (Standard)

This is the guitar part from the RECORD not the live version, The chords are:
G, C/G, C, Am, Em, Bm, D, Dsus4

INTRO:     Dsus4(add9)

e|-----0---------0----------0-----------0----------0-----------0-----------0------|
B|----------3----------3----------3----------3-----------3-----------3-----------3|
G|-------0---------0-----------0----------0-----------0-----------0-----------0---|
D|---4---------4----------4----------4----------4-----------4-----------4---------|
A|--------------------------------------------------------------------------------|
E|--(5)---------------------------------------------------------------------------|

e|-------------------------------------------------------|
B|-------------0h1---------------0-----------------------|
G|------------------0-----0------------0---0-------------|
D|-------------0h2-----2---------0-------0---------------|
A|--4--\2------------------------------------------------|
E|----------3-----------------3--------------------------|

e|---------------------------------------------------|
B|---------0h1--1------------0-----------------------|
G|-----------------0-------------0---0---------------|
D|---------0h2--------2------0-----0-----------------|
A|---------------------------------------------------|
E|------3-----------------3--------------------------|



All Verses:
      G                   C/G                        G
e|---------------------------------------------------------------------------|
B|--0-----------0---------1-----------1---------------0-------------0--------|
G|--------0---------------------0------------0----------------0--------------|
D|-----0-----------0---------2-----------2-----------------0-----------0-----|
A|---------------------------------------------------------------------------|
E|--3--------3------------3--------3------------------3----------3-----------|
     I     hear     the    drizzle    of   the    rain


                       Am                  Em                C             
e|--3----------------------------------------------------------------------------|
B|--------------0------1-----------1------0-----------0------1-----------1-------|
G|--------0------------------2------------------0------------------0-------------|
D|-----0-----------0------2-----------2------2-----------0------2-----------2--- |
A|---------------------0--------0----------------------------3--------3----------|
E|--3--------3----------------------------0--------0-----------------------------|
                        Like       a       mem--  o --    ry          it 

 
      Bm                                  G                  Bm                
e|---------------------2-------------------------------------2------------------|
B|--3-----------3------------------3------0-----------0------------------3------|
G|--------4------------------4------------------0------------------4------------|
D|-----4-----------4------4-----------4------0-----------0------4-----------4---|
A|--2--------2---------2--------2----------------------------2--------2---------|
E|----------------------------------------3--------3----------------------------|
      Falls                              Soft     and    warm 


      G           C                                         Am
e|--------------0-------------------------------------------------------------|
B|-----0--1--3--------------1-----------1-----------1--------1----------1-----|
G|--------------------0-----------0-----------0-----------0--------2----------|
D|-----------------2-----------2-----------2-----------2--------2----------2--|
A|--------0--2--3--------------------3-----------------------0--------0-------|
E|--3--3-----------------3-----------------------3----------------------------|
       Con -tinuing                                        Tapping 


      Em               D                  G
e|---------------------2-----------2----------------------------------------------|
B|--0-----------0------------3------------0--------1------0--------1---/----------|
G|--------0---------------2-----------2---------0---------------0-----------------|
D|-----2-----------2---0--------0------------0--------2------0--------2/----------|
A|--------------------------------------------------------------------------------|
E|--0--------0----------------------------3---------------3-------------/---------|
     on        my     roof    and       walls


Guitar break after select verses:
       Dsus4 
e|---------------------5-------------------3----------------------------------|
B|---3-----------3-----------------3------ 0----------------------------------|
G|---------0-----------------0------------ 0----------------------------------|
D|------4-----------4-----4-----------4--- 0----------------------------------|
A|-----------------------------------------2----------------------------------|
E|---5--------5--------5--------5----------3----------------------------------|


************************************

LYRICS:
I hear the drizzle of the rain
Like a memory it falls
Soft and warm continuing
Tapping on my roof and walls

And from the shelter of my mind
Through the window of my eyes
I gaze beyond the rainy streets
To England where my heart lies

My mind's distracted and diffused
My thoughts are many miles away
They lie with you when you're asleep
And kiss you when you start your day

And a song I was writing is left undone
I don't know why I spend my time
Writing songs I can't believe
With words that tear and strain to rhyme

And so you see I have come to doubt
All that I once held as true
I stand alone without beliefs
The only truth I know is you

And as I watch the drops of rain
Weave their weary paths and die
I know that I am like the rain
There but for the grace of you go I


Read more: SIMON AND GARFUNKEL - KATHY'S SONG LYRICS 

| /   slide up
| \   slide down
| h   hammer-on
Tap to rate this tab
# A B C D E F G H I J K L M N O P Q R S T U V W X Y Z