Song name
# A B C D E F G H I J K L M N O P Q R S T U V W X Y Z

Simon Boswell - Second Best tab

Tabbed out by Jorge.
Contact @ xlos_crudos4x@yahoo.com
Music written by Simon Boswell.

This song was featured in the Second Best movie...It comes on at the
ending credits and parts of it play through out the movie..It's a nice song..
Very memorable..Even if it repeats itself alot. You can find the soundtrack
on Amazon or Ebay ..So check it out!

I'd like to dedicate this tab to Christopher Cleary Miles..Where ever he is! I will 
always remember you!

|------5------------------------------------------------------------|
|-5h7-----7---7--7--10--8--7--5------------3--3--5--7--8--5---3--3--|
|---------------------------------7--6--4---------------------------|
|-------------------------------------------------------------------|x2
|-------------------------------------------------------------------|
|-------------------------------------------------------------------|


|-10--10-----------------|
|-10--10--12--12--10--10-|
|---------12--12--11--11-|
|------------------------|x2
|------------------------|
|------------------------|



|--------------------------------------------------------------------|
|-7--7--8--10--5---7--7--8--10--5-----------3--3--5--7--8--5---3--3--|
|----------------------------------7--6--4---------------------------|
|--------------------------------------------------------------------|
|--------------------------------------------------------------------|
|--------------------------------------------------------------------|


Tap to rate this tab
 
# A B C D E F G H I J K L M N O P Q R S T U V W X Y Z