Song name
# A B C D E F G H I J K L M N O P Q R S T U V W X Y Z

Simon Garfunkel - 59th St Bridge Song tab

The 59th Street Bridge Song (Feelin' Groovy)
Simon & Garfunkel

Tabbed by Phil G.

Capo 3rd Fret
As always, the tab is played relative to the capo.


Intro


E ------0-----------------|------------------------|
B ------------3-----------|1----------0------------|
G ----------------0-----0-|----0-----------0-----0-|
D ------------------0-----|------0-----------0-----|
A ------3-----2-----------|0-----------------------|
E ------------------------|-----------7\3----------|


E ------0-----------------|------------------------|
B ------------3-----------|1----------0------------|
G ----0-----0-----0-----0-|----0-----------0-----0-|
D ------------------0-----|------0-----------0-----|
A 3-----3-----2-----------|0-----------------------|
E ------------------------|-----------7\3----------|


E ------0-----------------|------------------------|
B ------------3-----------|1----------0------------|
G ----0-----0-----0-----0-|----0-----------0-----0-|
D ------------------0-----|------0-----------0-----|
A 3-----3-----2-----------|0-----------------------|
E ------------------------|-----------7\3----------|


E ------0-----------------|-----------7------------|
B ------------3-----------|1---------------8-------|
G ----0-----0-----0-----0-|----0--------------0h7--|
D ------------------0-----|------0---(0)-----------|
A 3-----3-----2-----------|0-----------------------|
E ------------------------|------------------------|
==============> *play this note using harmonics ^

E ------------------------|------------------------|
B ------------------------|------------------------|
G ------------------------|------------------------|
D ------------------------|------------------------|
A ------------------------|--------------0----0/2--|
E ------------------------|0/2----2/3--------------|


Verses


Note: There are many variations of the picking during the verses. Certain notes (which I
put in square brackets) are sometimes not played. In the last note (of which I have put
star in front), the third fret of the high E string is sometimes played rather than the 
fret of the G string.

E ------0-----------------|---------------------*3-|
B ------------3-----------|1----------0------------|
G --[0]---[0]-----0---[0]-|----0-----------0----*0-|
D ------------------0-----|------0-----------0-----|
A 3-----3-----2-----------|0-----------------------|
E ------------------------|-----------7\3----------|


This part here is played briefly a few times during the outro.

E ------------------------|------------------------|
B ------------------------|------------------------|
G ------0-----------0-----|------0-----------0-----|
D ---2-----------0--------|---0-----------0--------|
A 3--------3--2--------2--|0--------0--------------|
E ------------------------|------------3-------[3]-|
Tap to rate this tab
# A B C D E F G H I J K L M N O P Q R S T U V W X Y Z