Simon Garfunkel - 59th St Bridge Song tab

Simon & Garfunkel

59th Street Bridge Song

Standard Tunning. Cappo 3rd.



e|---0-----------------------------------------------------------------------|
B|--------------3---------1----------0---------------------------------------|
G|------0----------0---------0---------0---0---------------------------------|
D|--------0----------0---------0---------0-----------------------------------|
A|---3----------2---------0--------------------------------------------------|
E|-----------------------------------3---------------------------------------|


e|---0-----------------------------------------------------------------------|
B|--------------3---------1----------0---------------------------------------|
G|------0----------0---------0-----------------------------------------------|
D|--------0----------0---------0---------------------------------------------|
A|---3----------2---------0--------------------------------------------------|
E|-----------------------------------3---------------------------------------|

e|---0-----------------------------------------------------------------------|
B|--------------3---------1----------0---------------------------------------|
G|------0----------0---------0---------0---0---------------------------------|
D|--------0----------0---------0---------0-----------------------------------|
A|---3----------2---------0--------------------------------------------------|
E|-----------------------------------3---------------------------------------|

e|---0-------------------------------7---------------------------------------|
B|--------------3---------1------------8-------------------------------------|
G|------0----------0---------0-------7---------------------------------------|
D|--------0----------0----0----0---------------------------------------------|
A|---3----------2------------------------------------------------------------|
E|---------------------------------------------------------------------------|


Then repeat throughout the rest of the song.

This is just my adaption of the orignal version posted. Credit goes to him/her.

Thanks for looking, zac.
Tap to rate this tab
 
# A B C D E F G H I J K L M N O P Q R S T U V W X Y Z