Song name
# A B C D E F G H I J K L M N O P Q R S T U V W X Y Z

Simon Paul - You Can Call Me Al tab

Band-Inspection12
Song-You can call me al-(Paul Simon cover)
Email-Greenday_rhcp2002@yahoo.co.uk
Tuning-Standard
Tabbed:greenday2003/murph

This is how i play the song, 
Ur gonna have to listen to the song for strumming
but the chords are all in order i think
Comments and correction welcomed


Intro
|---------------------------|
|-------------------------x-|
|-13-11-11-9--13-11-11-13-x-|
|-13-11-11-9--13-11-11-13-x-|
|-----9--9-7------9--9----x-|
|---------------------------|

Intro Guitar1-Listen for strumming pattern on ths chord
|----------------------------------------|
|----------------------------------------|
|------9999--------(99h11p9h11p9h11p9)---|
|-9999-9999--------(99--------------9)x4-|
|-9999-7777------------------------------|
|-7777-77---repeat-----------------------|

|------------------------------------------|
|------------------------------------------|
|-9-9---11-9-9-11---9-9-11---9-9-11-11-9---|
|-9-9-9-11-9-9-11-9-9-9-11-9-9-9-11-11-9-9-|
|-7-7-9--9-7-7--9-9-7-7--9-9-7-7--9--9-7-9-|
|-----7-----------7--------7-------------7-|x1


Play 2nd guitar intro x4

verse
|--------------|
|--------------|
|-9---11-------|
|-9-9-11-9-9-9-|
|-7-9--9-9-9-9-|
|---7----7-7-7-|x4



|------------------------------------------|
|------------------------------------------|
|-9-9-11---9-9-11---9-9-11---9-9-11-11-9---|
|-9-9-11-9-9-9-11-9-9-9-11-9-9-9-11-11-9-9-|
|-7-7--9-9-7-7--9-9-7-7--9-9-7-7--9--9-7-9-|
|--------7--------7--------7-------------7-|x1


Play intro x4
Versex8 = x4 solo x4post solo
Solo-il get it later-No fx pedal

|--------|
|--------|
|--------|
|-11-9---|
|--9-7-9-|
|------7-|x1

2nd solo
|--------------------------------------------|
|--------------------------------------------|
|--------------------------------------------|
|-1414-1313-1111-99-(x3)-1414-1313-1616-1414-|
|--------------------------------------------|
|--------------------------------------------|


|----------------------------------------------------------|
|-----------------------------------1212-1010-1212-1414-17-|
|-1313-1111-99-88-1414-1313-1111-99------------------------|
|----------------------------------------------------------|
|----------------------------------------------------------|
|----------------------------------------------------------|x1

Intro x8
Versex2
End on

|---|
|---|
|-9-|
|-9-|
|-7-|
|---|
Tap to rate this tab
# A B C D E F G H I J K L M N O P Q R S T U V W X Y Z