Song name
# A B C D E F G H I J K L M N O P Q R S T U V W X Y Z

Simon Says - Hey You tab

Simon Says
"Hey You"
Shut Your Breath
Dropped-B

Intro

Palm Muted W/Reverb   3x                       1x
Db|---------------------|------------------------|
Ab|---------------------|------------------------|
E |---------------------|------------------------|
Bb|-12-10-0-10-12-0-0-0-|-12-10-0-13-13-13-13-12-| 3x
F |---------------------|------------------------|
Bb|---------------------|------------------------|

                      3x             1x
Db|---------------------|--------------|
Ab|---------------------|--------------|
E |---------------------|--------------| 1x
Bb|-12-10-0-10-12-0-0-0-|-12-10-0-0-13-|
F |---------------------|--------------|
Bb|---------------------|--------------|


Main Riff
                      3x                       1x
Db|---------------------|------------------------|
Ab|---------------------|------------------------|
E |---------------------|------------------------|
Bb|---------------------|------------------------| 4x
F |---------------------|------------------------|
Bb|-12-10-0-10-12-0-0-0-|-12-10-0-13-13-13-13-12-|


Verse #1
                        (Volume Swell)
Db|--------|-----------|---------------|
Ab|--------|-----------|---------------|
E |-----13-|-----13----|-14--7---10--5-|
Bb|-x---12-|-x---12----|-x---x---x---x-|
F |-x-0-11-|-x-0-11----|-12--5---8---3-|
Bb|-x-0----|-x-0-------|---------------|

Chorus

Db|-------------------------|
Ab|-------------------------|
E |-7-----------------------|
Bb|-7-0-7-7-7---10-10---8-8-|
F |-5-0-5-5-5---10-10---8-8-|
Bb|---0-0-0-0---10-10---8-8-|  continued...
...
Db|----------------------------|
Ab|----------------------------|
E |-14-------------------------|
Bb|-x------0-------10-10---8-8-|
F |-12-(b)-0-5-5---10-10---8-8-|
Bb|--------0-0-0---10-10---8-8-|


Bridge

Db|----------------------|
Ab|----------------------|
E |----------------------|
Bb|----------------------|
F |-12-10-0--------------|
Bb|-12-10-0--12(B)-12(B)-|


Outtro

Db|---------------------------------|-------------------------------------|
Ab|---------------------------------|-------------------------------------|
E |-14------------------------------|----------------17-17-17-15-15-15-15-|
Bb|-x-------------------------------|----------------x--x--x--x--x--x--x--|
F |-12-(b)-12-12-12---12-12---12-12-|----------------15-15-15-13-13-13-13-|
Bb|--------0--0--0----10-10---8--8--|-12p0-12p0-12p0----------------------|

Play these riff accordingly to the song, and you'll get it.
Tap to rate this tab
 
# A B C D E F G H I J K L M N O P Q R S T U V W X Y Z