Guitaretab - guitar tabs
Song name
# A B C D E F G H I J K L M N O P Q R S T U V W X Y Z

Simon Says - Life Jacket tab

Hey everbody, i've never even heard of simon says or this song until i watched johnny 
but this song is AWESOME! it is the first song i tabbed out. I think it's right, i played 
with the song and it sounds the same. if you have any questions, email me at bpb.4@hotmail.com

INTRO/VERSE (2x)
e|-------------------------------------------------------------------|
 |------101010----------1010----------101010------------10101111-----|
 |-------------101010--------1010------------101010------------------|
 |--888--------------888----------888---------------888--------------|
 |-------------------------------------------------------------------|
E|-------------------------------------------------------------------|

Chorus (2x)
e|------------------------------------------------------------|
 |------------------------------------------------------------|
 |------------------------------------------------------------|
 |-88888888888888812121212131313131313131313131313------------|
 |-88888888888888812121212131313131313131313131313------------|
E|-6666666666666661010----111111111111111111111111------------|
[ Tab from: http://www.guitaretab.com/s/simon-says/44134.html ]
 SECOND PART OF VERSE (3x) do this after the 3rd time
|------------------------------------------------------------------------|
|--161616151515--------161616151515-------1615---1615----1615----1615----|
|---------------151515-------------151515------15-----15------15------15-|
|------------------------------------------------------------------------|
|------------------------------------------------------------------------|
|------------------------------------------------------------------------|

CHORUS (2x)

VERSE (3x)and SECOND PART OF VERSE

During the verse after the second time, do this with the 3rd time and the SECOND PART OF VERSE
|-------------------------------------|
|-------------------------------------|
|-------------------------------------|
|-8-x-x-8-x-x-88-88-88-8-x-x-8-x-x-8--|
|-8-x-x-8-x-x-88-88-88-8-x-x-8-x-x-8--|
|-6-x-x-6-x-x-66-66-66-6-x-x-6-x-x-6--|

CHORUS (4x)

do this after the chorus (2x) after second time let ring and slide down
|-----------------------------------------------------|
|-----------------------------------------------------|
|-----------------------------------------------------|
|-----------------------------------------------------|
|-10101010-10-121212-88888888--10101010-121212=131313-|
|-88888888-8--101010-66666666--88888888-101010-111111-|

Strumming part with low distortion i think. "open the book to find these pages"
|-----------|
|--10-------|
|--10-------|
|8--8-------|
|-----------|
|-----------|

CHORUS (8x)
after the 5th time, do the VERSE until the end.

LAST PART
|--------------|
|--------------|
|--------------|
|--------------|
|-1010-12-13~--|
|-8888-10-11~--|
Related for Life Jacket tab
Life Jacket chords by Simon Says