Guitaretab - guitar tabs
Song name
# A B C D E F G H I J K L M N O P Q R S T U V W X Y Z

Simon Says - El Ess tab

Band:simon says
Song: Eless

im pretty sure this is right this song maybe slo but it kix ass if you like old machine 
youll like this i no this is right i searched for this tab for 2 weeks this is the only 
youll find it thank me fukrs
bloodxinxmyeyes@hotmail.com  does any one have mudvayne tab for the first cd and no ld50 isnt the first

1-------------------------------------------------------------------|
2-------------------------------------------------------------------|
3-----15--12--14----------------------------------------------------|
4-------------------------------------------------------------------|
5-------------------------------------------------------------------|
6--0----------------------------------------------------------------|  (x2)

[ Tab from: http://www.guitaretab.com/s/simon-says/49679.html ]
1-------------------------------------------------------|
2---------------------------------------------15--------|
3--------15--12--14-----------15--12--------------------|
4------0--------------------0---------------------------|
5----0--------------------0-----------------------------|
6--0--------------------0-------------------------------|

then

1-----------0----------|
2-----------0----------|
3-----------0----------|
4--0--------------0----|
5--0--------------0----|
6--0--------------0----|


1
2
3
4--3--3--------------------0-|
5--3--3 -------------------0-|
6--3--3  (x17) then  --0-----|
..yellow and black
1-----------------------|
2-----------------------|
3----14--13--14------15-|
4----------------14-----|
5-----------------------|
6-0---------------------|

keep doing that then go into the chorus and follow up the second time with
1
2
3
4
5
6--0*--0-0-0-3-0--0*--0-0-0-3-0---->
it may be the sixth string or a full chord with three i dont no play around with it
this is my first tab ive only been playing 6months
anyone have tips
have fun with this song i dont no the rest so if you can finish it email it to me
late
Related for El Ess tab
El Ess chords by Simon Says