Song name
# A B C D E F G H I J K L M N O P Q R S T U V W X Y Z

Simon Viklund - Razormind tab

-------------------------------------------------------------------------------
                             Razormind - Simon Viklund
-------------------------------------------------------------------------------
Tabbed by:Alfred
E-mail:affe1996@gmail.com

Tuning:Standard

So here's the track Razormind from the Payday 2 OST. 
If you have any questions, just comment down below.


2:21
e|---------------------------|
B|---------------------------|
G|--5--5--5--5---5\3/5\3/5\3-|
D|--x--x--x--x---x-x-x-x-x-x-|
A|--3--3--3--3---3\1/3\1/3\1-|
E|---------------------------|

2:25 Main Riff Part 1
e|---------------------------|
B|---------------------------|
G|--5--3/5--3/5--3/5--3/5--8-|
D|--x--x-x--x-x--x-x--x-x--x-|
A|--3--1/3--1/3--1/3--1/3--6-|
E|---------------------------|

2:29 Main Riff Part 2
e|---------------------------------|
B|---------------------------------|
G|--11--12\11-12\11-12\11--11\8--6-|
D|--x---x--x--x--x--x--x---x--x--x-|
A|--9---10\9--10\9--10\9---9-\6--4-|
E|---------------------------------|

2:54 Played by a second guitar
e|-----------------------------------|
B|--8~--7~--8~--7~--8~--4~-----------|
G|--------------------------5~-------|
D|-----------------------------------|
A|------------------------------333~-|
E|-----------------------------------|

3:24
e|-------------------------------------|
B|-------------------------------------|
G|-------------------------------------|
D|------10~------10~------10~------10~-|
A|-------------------------------------|
E|--8-8------8-8------8-8------8-8-----|

3:39
e|-------------------------------------|
B|-------------------------------------|
G|-------------------------------------|
D|------10~------8~-------7~-------6p5-|
A|-------------------------------------|
E|--8-8------8-8------8-8------8-8-----|x3

4:00
e|--------------------------------------------------|
B|--------------------------------------------------|
G|--------------------------------------------------|
D|------10~--------13~--------15~--------17-15--10--|
A|----------------------------------------------x---|
E|--8-8------11-11------13-13------15-15--------8---|


************************************

| /   slide up
| \   slide down
| p   pull-off
| ~   vibrato
| x   Mute note

************************************
Tap to rate this tab
 
# A B C D E F G H I J K L M N O P Q R S T U V W X Y Z