Song name
# A B C D E F G H I J K L M N O P Q R S T U V W X Y Z

Simone Molinaro - Fantasia No 1 tab

Lute Tuning: E A D F# B E

Suggested tempo is 92: this one is a challenge, but well worth the effort
in bringing out the separate voices. Feel free to contact me via e-mail to
discuss any musical concern , technique or otherwise.

---5---5-5-|-2-3-5-2-|-3---2---|-0-2-3-2-|-0---------|---------|-------0-|----|
-----------|-3---3-3-|-0-2-3-0-|-2---0-3-|---2-0-2---|-3---2-3-|-0-2-3-2-|----|
-----------|---------|---------|---3-----|-3-----3-3-|-0-1-3-0-|-1-3-5---|----|
-----------|---------|---------|---------|-----------|---------|---------|----|
-----------|---------|---------|---------|-----------|---------|---------|----|
-----------|---------|---------|---------|-----------|---------|---------|----|
   . . . .   . . . .   . . . .   . . . .   . . + . .   . . . .   . . . .

-2---------|---------|-------------|-------------|-----------|---------|------|
-3-2-0-----|---------|-------------|---------3---|---2-0-2---|-3---2---|------|
-------3---|-1---0---|---0-1---0---|-0-1-3---0-1-|-3-1-0-----|-0-----3-|------|
-0-----0-0-|-----0---|-2---------2-|-0-2-4-2-----|-------2---|-----2-0-|------|
-----------|-2-4---2-|-4-0-2-0-2-4-|-------------|-0-----0-0-|-----0---|------|
-----------|---------|-------------|-------------|-----------|-2-3---2-|------|
 . . + . .   . . . .   . . . + . +   . . . + . +   . . + . .   . . . .

-------0-|-2---------|---------|---0-2---3-|-5---3---|-2---0-----|---------0-|
-0-2-3---|---3---3-3-|-2-3-0-2-|-3-2-3---5-|-7---3-5-|---3-------|---3-2-0---|
---3-1---|-0-------1-|-3-0-1-3-|-5---------|---------|-3-5---3---|-3-3---2-3-|
---------|-0---2-4---|---------|-------0---|-0-0-----|-0---2-----|---0---2---|
---0-2-4-|-----------|---------|-----------|-----2-4-|---2-4---2-|-4-------4-|
-3-------|-----------|---------|-----------|---------|-----------|-----------|
 . . . .   . . + . .   . . . .   . . . . +   . . . .   . . . . +   . . + . .

-------0-|-0-0-----0---|---------------0-|-2-3-0-2-3---2---|-0-------------0-|
-3-0-2---|-----2-3---2-|-3---2---0-2-3---|---0-2-3-0-2-3-0-|-2---3---2---3---|
-0-2-3---|---3-3---3---|-0-1-3-0-1---0-1-|-3---------------|---3-0-1-3-------|
-0-2-----|-------------|-----------------|-----------------|-----------------|
-----0---|-------------|-----------------|-----------------|-----------0-2-4-|
---------|-------------|-----------------|-----------------|-----------------|
 . . . .   . . . + . +   . + . + . + . +   . + . + . + . +   . + . + . + . +

-2-------------0-|-2-0-2-3-5-3-2-5-|-3---2---0-------|-----------------|------|
---------3-0-3---|-----------------|-------------3---|-2---0-----------|------|
-----------------|-----------------|-----------------|---0-1---3---1---|------|
-0-0-------------|-0---0---0---0---|-----0---------0-|-2-----2-4-0-2---|------|
-----------------|-----------------|-2-4---2-4-0-2---|---------------4-|------|
-----0-2-3---2-0-|-----------------|-----------------|-----------------|------|
 . + . + . + . +   . + . + . + . +   . + . + . + . +   . + . + . + . +

---------------|---------|-----------0---|---0-2-----0-----|-------0-2---0-|--|
---------------|---------|-----0-2-3---2-|-3-------------3-|---2-3-2-3---2-|--|
-0-2-3-------2-|-3-------|-3-------------|---------0-1-3-0-|-1-3-5---------|--|
-0-------------|---2-2-2-|---------------|-0-----2---------|-----------0---|--|
-------4-2-0-2-|-0-------|---0---0---0---|-----------------|---------------|--|
---------------|---------|---------------|-----------------|---------------|--|
 . a . + . + .   . . . .   . . + . + . +   . + . + . + . +   . + . + . . +

-2-3-5-3-----|---0-2---0-----|-----------0-|-2-3-5-2-3-------|----------------|
-3-5-7-5-3-2-|-3-----3-------|-----3-------|-----------0-----|----------------|
-------------|-----------3---|-3-3---------|-----0---------3-|-2-3---2-3------|
-0---0-------|-----0---------|---0---------|-0-------2-------|-----------2----|
-----------0-|-2-4---2-4---2-|-4-----4-2-4-|-----------------|---------0---2--|
-------3-----|---------------|-------------|-------------0---|-0---0----------|
 . + . . . +   . + . + . . +   . . . + . +   . + . + . + . +   . + . + . + a

---------------|-----5---3-|-2-0---------0-2-|-0-------------|----------------|
-----------3---|-3-3-------|-----3-0-2-3-----|---3-2-0---3---|---2-0-------3--|
---0-1-3-0---1-|-3-5-0-3---|---1-0-1-3-------|---------3-----|-0---1---3---0--|
---0-2---0---2-|-4-5-0-----|-----------------|-----2---4---2-|---------4-0----|
-4-----4-------|-----------|-------------0---|-0---0---5---4-|-2-0------------|
---------------|-----------|-----------------|---------------|-----3-0-2---2--|
 . + . + . . +   . . . . +   . + . + . + . +   . + . + . . +   . + . + . + .

---|-------5-|-5-5---2---0-|-----------|-----------------|---5-2-----------|--|
---|-2-3---2-|-3-----------|-3---2-0---|-0---------------|-------3---0-----|--|
---|---------|-0---1-3-3---|-5-0---1-3-|---1-1-----------|-0-------3---3-1-|--|
---|-2-0-2---|-0-0---0-0---|-----------|-----------------|-0---------------|--|
---|-0-2-0---|-------------|-2---0-----|-------2-0-------|-----------------|--|
-3-|---------|-------------|-------3-2-|-3---------3-2-0-|-----------------|--|
 +   . . . .   . . + . . +   . . + . .   . + . + . + . +   . + . + . + . +

--------0-2-0-2-3-5-7-|-5-----------------------------------------------------|
----3-3---------------|-3-----------------------------------------------------|
--0-------------------|-0-----------------------------------------------------|
--0-------------------|-0-----------------------------------------------------|
----------------------|-------------------------------------------------------|
----------------------|-------------------------------------------------------|
  . + . + . e + a . +   .
Tap to rate this tab
# A B C D E F G H I J K L M N O P Q R S T U V W X Y Z