Song name
# A B C D E F G H I J K L M N O P Q R S T U V W X Y Z

Simone White - Beep Beep Song tab

tabbed by mike m
tuning: standard

intro
e--10----10------10----10---------------|
b-----10----10------10-----10-----------|
g---------------------------------------|
d---------------------------------------|
a---------------------------------------|
E---------------------------------------|

for the first part to the tune you can hold down
e-10
b-10
g-11
d-12
a-12
E-10
and pick out the notes

not sure if the guitar plays the notes in brackets but it sounds good if you put them in
e-----------10-----------------10-----------|
b--10----------------10---------------------|
g-------11------11--------11----------------|  x2
d-(12)--------------------------------------|
a----------(12)---------------(12)----------|
E-------------------(10)--------------------|

next i hold down
e----
b-14>>(barred
g-14>>with little finger)
d-11-
a-12-
E----


e---------------------------------------------------------|
b-------14-----------14----------14--------14(p12?)-------|
g----14----14-----14---14-----14---14---14-14(p12?)-------|
d-11-----------------------11-----------------------------|
a-------------12---------------------12-------------------|
E---------------------------------------------------------|

alternatively if u want you can hold down a c shape bar chord on the 9th fret

e-9
b-10
g-9
d-11
a-12
E-9

and pick

e----------9--------------9-------|
b------10-----10-------10---10----|
g---------------------------------|
d--11-----------------------------|
a------------------12-------------|
E---------------------------------|

for the verse i then play the intro but change the first part to

e--------10------------10--------------10--------------10---------|
b-----10---10-------10----10--------10-----10------10-----10------|
g-----------------------------------------------------------------|
d--12--------------------------12---------------------------------|
a---------------12-----------------------------12-----------------|
E-----------------------------------------------------------------|

opposite directions ...     synchronised feet ...
e----------------------------------------------|
b--12--------------------------14--------------|
g--12--------------------------14--------------|
d--12--------------------------14--------------|
a--10--------------------------12--------------|
E----------------------------------------------|


repeat verse then ...

chord progression breakdown thingy
e---------------------------------------------------------------------------|
b-12--14-13- 13s15--(15)------13-12------12---15-------10--12--14-----------|
g-12--14-14--14s14----- (14)--14-12------12---16--(14)-11--13--15-----------|
d-12--14-14--14s16------------14-14------14---16-------10--14--16-----------|
a-10--12-12--12s14------------12-14------14---14-------12--14--16-----------|
e-----------------------------------(12)-12------------10--12--14-----------|


not too sure bout the last 3 chords , they sound ok but somethings not quite right.

she might mess about a bit in the verses but i think this is the main idea
i havent copied from a book so there will probably be corrections. if u got any just put 
on a comment, for everyone to see:)
Tap to rate this tab
 
# A B C D E F G H I J K L M N O P Q R S T U V W X Y Z