Song name
# A B C D E F G H I J K L M N O P Q R S T U V W X Y Z

Simple Citizens - The Bearded Fist tab

http://www.simplecitizens.com/


Artist: Simple Citizens
Album: Early Morning
Song: The Bearded Fist!
tabbed by witmachine@yahoo.com

Tablature for guitar
Dope instrumental joint from Simple Citizens' latest LP, Early Morning.
Simple Citizens:
http://www.myspace.com/simplecitizensmusic


Song based on several loops:

(0:00-0:11)
Bass 1   +   2   +   3   +   4   +   1   +   2   +   3   +   4   +    |
e |-------------------------------------------------------------------|
B |-------------------------------------------------------------------|
G |-------------------------------------------------------------------|
D |--7-------------------8-----------7-------------------8------------|
A |--------7---------------------8---------7---------------------8----|
E |--------------5---6---------------------------5---6----------------|

(0:11-0:20)
Git. 1   +   2   +   3   +   4   +   1   +   2   +   3   +   4   +    |
e |-------------------------------------------------------------------|
B |-------------------------------------------------------------------|
G |-------------------------------------------------------------------|
D |--7-7-7---------------------------7---7----------------------------|
A |--------7---7---------8-----------------7---7---------8------------|
E |--------------5---6---------------------------5---6----------------|

(0:20-0:29)
e |-------------------------------------------------------------------|
B |--5-----5-5---5---6-----6-6---6---5-----5-5---5---6-----6-6--------|
G |--5-----5-5---5---7-----7-7---7---5-----5-5---5---7-----7-7--------|
D |--7-----7-7---7---8-----8-8---8---7-----7-7---7---8-----8-8--------|
A |-------------------------------------------------------------------|
E |-------------------------------------------------------------------|

(0:30-0:38)
e |-------------------------------------------------------------------|
B |----------10--------------10--------------10--------------10-------|
G |-------------------------------------------------------------------|
D |-------------------------------------------------------------------|
A |-------------------------------------------------------------------|
E |-------------------------------------------------------------------|

(0:38-0:47)
e |-------------------------------------------------------------------|
B |--5-------5-----------6-----------5-------5-----------6------------|
G |--5----------5--------6-----------5----------5--------6------------|
D |--7-------------7-8-----------8---7-------------7-8-----------8----|
A |-------------------------------------------------------------------|
E |-------------------------------------------------------------------|


other elements come in all together at 0:56 then at 1:05 lead melody comes in
 
(1:05-1:41)
e |-------------------------------------------------------------------|
B |------------------------------6-------------------------8---8-11---|
G |------------------------7---7-----9-7-9-------9-9-10--10-----------|
D |--7-5-7-------7-7-8---8--------------------------------------------|
A |-------------------------------------------------------------------|
E |-------------------------------------------------------------------|

e |------------------------8----10------------------------------------|
B |-10-8-10----10-10-11--11---------10-10-10-8-10---------------------|
G |-------------------------------------------------------------------|
D |-------------------------------------------------------------------|
A |-------------------------------------------------------------------|
E |-------------------------------------------------------------------|

that's pretty much it for the main guitar elements of the song!



comment/rate!



Tap to rate this tab
# A B C D E F G H I J K L M N O P Q R S T U V W X Y Z