Song name
# A B C D E F G H I J K L M N O P Q R S T U V W X Y Z

Simple Minded Peasants - Kandyce tab

this song is awesome and its by an awesome punk band so...


intro

-----------------------------------|
-----------------------------------|
-5---------------------------------|
-5-5-------------------------------|
-3-5-------------------------------|
---3-------------------------------|

verse p.m.

-----------------------------------------|
-----------------------------------------|
--5-------7------------------------------|
--5---5---7--5---------------------------|
--3---5---5--5---------------------------|
------3------3---------------------------|

chorus

-----------------------------------------|
-----------------------------------------|
-5------7--------------------------------|
-5---5--7--------------------------------|
-3---5--5--------------------------------|
-----3-----------------------------------|
Tap to rate this tab
# A B C D E F G H I J K L M N O P Q R S T U V W X Y Z