Song name
# A B C D E F G H I J K L M N O P Q R S T U V W X Y Z

Simple Plan - Tell Me tab

-----------------------------------------------------------------------------
			     tell me - simple plan
-----------------------------------------------------------------------------
Tabbed by:
Email:

Tuning:E A D G B E

e|--0----7----0-----0-----7--------------------------------------------------|
B|--------------------------------0-------7-------0--------0------7----------|
G|---------------------------------------------------------------------------|
D|---------------------------------------------------------------------------|
A|---------------------------------------------------------------------------|
E|---------------------------------------------------------------------------|

e|------------------------------------------------------------------------------|
B|-----------4-----------------------------4------------------5-----------------|
G|--1-------------------1----------1-----------------2-----------------2--------|
D|------------------------------------------------------------------------------|
A|------------------------------------------------------------------------------|
E|------------------------------------------------------------------------------|

e|---------------------------------------------------------------------------|
B|---------------5-----------------------------------------------------------|
G|----2----------------------------------------------------------------------|
D|---------------------------------------------------------------------------|
A|---------------------------------------------------------------------------|
E|---------------------------------------------------------------------------|
Tap to rate this tab
# A B C D E F G H I J K L M N O P Q R S T U V W X Y Z