Guitaretab - guitar tabs
Song name
# A B C D E F G H I J K L M N O P Q R S T U V W X Y Z

Simple Plan - Vacation tab

This is my first song here in ultimate guitar . hope you enjoy it :D
Any questions or just aything to fix ; yaara013@walla.com

verse 1 :

e -------------------------------------|
b -------------------------------------|
g -------------------------------   ---| > Play this x9 times
d -------------------------------------|
a -6-6-6-6-6-6-6-----------------------|
E ---------------4-4-4-4-6-6-6-6-------|

chors :

e ---------------------------------------------------|
b ---------------------------------------------------|
g -8-8-8-8-8-8-8-8-----------------------------------|
d -8-8-8-8-8-8-8-8-6-6-6-6-6-6-6-6-8-8-8-8-8-8-8-8-8-|
a -6-6-6-6-6-6-6-6-6-6-6-6-6-6-6-6-8-8-8-8-8-8-8-8-8-|
E -----------------4-4-4-4-4-4-4-4-6-6-6-6-6-6-6-6-6-|

e --------------------------------|
b --------------------------------|
g ------------------------     ---| play this x3 times
d -6-4-6-4-6-6-6------------------|
a -6-4-6-4-6-6-6------------------|
E -4-2-4-2-4-4-4------------------|

verse 2:

same as verse 1 by full power chords x4 times then :

e ----
b ----
g ----
d -6--
a -6--
E -4--

chors x3 times then :

e --------------------------------|
b --------------------------------|
g --------------------------------|
d -6-4-6-4-6-6-6-6-6-6-6-6-  -----| play this x4 times then :
a -6-4-6-4-6-6-6-6-6-6-6-6--------|
E -4-2-4-2-4-4-4-4-4-4-4-4--------|

e ---------------------------------|
b ---------------------------------|
g ---------------------------------|
d -6-6-6-6-6-6-6-6-8-8-8-8-8-8-8-8-|
a -6-6-6-6-6-6-6-6-8-8-8-8-8-8-8-8-|
E -4-4-4-4-4-4-4-4-6-6-6-6-6-6-6-6-|


Bridge : (solo part)-
[ Tab from: http://www.guitaretab.com/s/simple-plan/132944.html ]
Eb|----------------------11-10----11-11-10-----------------|
Bb|------11-9-8---------------11----------11--- -----------|
Gb|--6/8---------8-----------------------------------------|
Db|--------------------------------------------------------|
Ab|--------------------------------------------------------|
Eb|--------------------------------------------------------|

Eb|--------------------------------------------------------|
Bb|--------------------------------------------------------|
Gb|---12/10-10/8-8/7-7/8-8-7-7-5---------------------------|
Db|------------------------------8-------------------------|
Ab|--------------------------------------------------------|
Eb|--------------------------------------------------------|

Eb|--------------------------------------------------------|
Bb|-------11-----11---------11-----------------------------|
Gb|---7-8----7-8----7-8-7-8----8-7-8787-5-3----------------|
Db|--------------------------------------------------------|
Ab|--------------------------------------------------------|
Eb|--------------------------------------------------------|

Eb|--------------------------------------------------------|
Bb|--------------------------------------------------------|
Gb|--12~~--12-12-12-12-15--15-15-15-15-15------------------|
Db|--------------------------------------------------------|
Ab|--------------------------------------------------------|
Eb|--------------------------------------------------------|

Eb|--------------------------------------------------------|
Bb|--------------------------------------------------------|
Gb|----20-19-19----19---20-19-19----19---19-19-20~~~~~~~---|
Db|-------------20---------------20------------------------|
Ab|--------------------------------------------------------|
Eb|--------------------------------------------------------|

Chors . then end .
Related for Vacation tab
×
Vacation