Guitaretab - guitar tabs
Song name
# A B C D E F G H I J K L M N O P Q R S T U V W X Y Z

Simple Plan - Untitled Live tab

-----------------------------------------------------------------------------
              UNTITLED (HOW COULD THIS HAPPEN TO ME) - Simple Plan
-----------------------------------------------------------------------------
Tabbed by: Bob Miller
Email: onefinebob@gmail.com

This is my version of the MTV Hard Rock Live version of the song, arranged for
acoustic guitar. Feel free to e-mail me with comments/feedback/suggestions.

Tuning: Normal
                                 I  open my eyes...                   
e|----------------|----------------|----------------|----------------|
B|----------------|----------------|--------4-------|--------4---5---|
G|------------1---|------------1---|----6-------6---|----6---6---6---|
D|----2---4-------|----2---4-------|--6---6---6-----|--6---6---6---6-|
A|--2---2---2---2-|--2---2---2---2-|4---------------|4---------------|
E|0---------------|0---------------|--------------4-|----------------|

  white light
e|----------------|
B|----------------|
G|------------1---|
D|----2---4-------|
A|--2---2---2---2-|
E|0---------------|

        I canít re-member how... re-member why   Iím lying here    to-
e|----------------|----------------|----------------|----------------|
B|----------------|--------4---5---|--------4---5---|----------------|
G|------------1---|----6---6---6---|----6---6---6---|------------1---|
D|----2---4-------|--6---6---6-----|--6---6---6---6-|----2---4-------|
A|--2---2---2---2-|4---------------|4---------------|--2---2---2---2-|
E|0---------------|--------------4-|----------------|0---------------|

 -night      And I canít stand the  pain       And I canít make it 
e|----------------|----------------|----------------|----------------|
B|----4---5---4---|----2---4---5---|----4---5---4---|--------4---5---|
G|----4---4---4---|----2---2---2---|----4---4---4---|----6---6---6---|
D|--4---4---4---4-|--2---2---2---2-|--4---4---4---4-|--6---6---6---6-|
A|2---------------|0---------------|2---------------|4---------------|
E|----------------|----------------|----------------|----------------|
 
  go away    No I  canít stand the  pain               How could...
e|----------------|----------------|----------------|----------------|
B|----------------|----2---4---5---|----4---5---4---|5-------4-------|
G|------------1---|----2---2---2---|----4---4---4---|4-------4-------|
D|----2---4-------|--2---2---2---2-|--4---4---4---4-|4-------4-------|
A|--2---2---2---2-|0---------------|2---------------|2-2-2-2-2-2-2-2-|
E|0---------------|----------------|----------------|----------------|

  me...      mistakes...       to run...       goes on...          a-
e|----------------|----------------|----------------|----4---2-------|
B|----------------|--------4---5---|----2---4---5---|----4---4---5---|
G|------------1---|6---6---6---6---|2---2---2---2---|--------4---4---|
D|2---2---4-------|6-6---6-6-6---6-|2-2---2-2-2---2-|--4---4-4-4---4-|
A|2-2---2-2-2---2-|4-------4-------|0-------0-------|2-------2-------|
E|0-------0-------|----------------|----------------|----------------|

-way...     this life...        scream...             How...
e|----------------|----------------|----------------|----4---2-------|
B|----------------|--------4---5---|----2---4---5---|----4---4---5---|
G|------------1---|6---6---6---6---|2---2---2---2---|--------4---4---|
D|2---2---4-------|6-6---6-6-6---6-|2-2---2-2-2---2-|--4---4-4-4---4-|
A|2-2---2-2-2---2-|4-------4-------|0-------0-------|2-------2-------|
E|0-------0-------|----------------|----------------|----------------|

                                    Everybody...               no one
e|----------------|----------------|----------------|----------------|
B|----------------|----------------|--------4---5---|--------4---5---|
G|------------1---|------------1---|----6---6---6---|----6---6---6---|
D|----2---4-------|----2---4-------|--6---6---6-----|--6---6---6---6-|
A|--2---2---2---2-|--2---2---2---2-|4---------------|4---------------|
E|0---------------|0---------------|--------------4-|----------------|

  hears me...
e|----------------|
B|----------------|
G|------------1---|
D|----2---4-------|
A|--2---2---2---2-|
E|0---------------|

               Iím slipping...                    I  wanna...
e|----------------|----------------|----------------|----------------|
B|----------------|--------4---5---|--------4---5---|----------------|
G|------------1---|----6---6---6---|----6---6---6---|------------1---|
D|----2---4-------|--6---6---6-----|--6---6---6---6-|----2---4-------|
A|--2---2---2---2-|4---------------|4---------------|--2---2---2---2-|
E|0---------------|--------------4-|----------------|0---------------|

again...        so I      try to   hold       onto a time when
e|----------------|----------------|----------------|----------------|
B|----4---5---4---|2---2---4---5---|4---4---5---4---|--------4---5---|
G|----4---4---4---|----2---2---2---|----4---4---4---|6---6---6---6---|
D|--4---4---4---4-|--2---2---2---2-|--4---4---4---4-|--6---6---6---6-|
A|2---------------|0---------------|2---------------|4---------------|
E|----------------|----------------|----------------|----------------|
[ Tab from: http://www.guitaretab.com/s/simple-plan/137378.html ]
  nothing...   and I      canít explain...       and I      canít  er-
e|----------------|----------------|----------------|----------------|
B|----------------|2---2---4---5---|2---4---5---4---|--------4---5---|
G|------------1---|----2---2---2---|----4---4---4---|6---6---6---6---|
D|----2---4-------|--2---2---2---2-|--4---4---4---4-|--6---6---6---6-|
A|--2---2---2---2-|0---------------|2---------------|4---------------|
E|0---------------|----------------|----------------|----------------|

 -rase...        done...                        No I canít            
e|4-----2-----0---|----------------|----------------|------------2---|
B|----------------|----2---2---4h5-|5-----------4h5-|2---4---5---4---|
G|------------1---|------2---2---2-|----2---2---2---|----------------|
D|----2---4-------|--2-------------|--2---2---2---2-|--4-------4---4-|
A|--2---2---2---2-|0---------------|0---------------|2-----2---------|
E|0---------------|----------------|----------------|----------------|

    How could...
e|----------------|
B|5-------4-------|
G|4-------4-------|
D|4-------4-------|
A|2-2-2-2-2-2-2-2-|
E|----------------|

  me...      mistakes...       to run...       goes on...          a-
e|----------------|----------------|----------------|----4---2-------|
B|----------------|--------4---5---|----2---4---5---|----4---4---5---|
G|------------1---|6---6---6---6---|2---2---2---2---|--------4---4---|
D|2---2---4-------|6-6---6-6-6---6-|2-2---2-2-2---2-|--4---4-4-4---4-|
A|2-2---2-2-2---2-|4-------4-------|0-------0-------|2-------2-------|
E|0-------0-------|----------------|----------------|----------------|

-way...     this life...        scream...             How...
e|----------------|----------------|----------------|----4---2-------|
B|----------------|--------4---5---|----2---4---5---|----4---4---5---|
G|------------1---|6---6---6---6---|2---2---2---2---|--------4---4---|
D|2---2---4-------|6-6---6-6-6---6-|2-2---2-2-2---2-|--4---4-4-4---4-|
A|2-2---2-2-2---2-|4-------4-------|0-------0-------|2-------2-------|
E|0-------0-------|----------------|----------------|----------------|


e|----------------|
B|5-------4-------|
G|4-------4-------|
D|4-------4-------|
A|2-2-2-2-2-2-2-2-|
E|----------------|

SOLO
e|----------------|----------------|----------------|----------------|
B|2---2---4---5---|4---4---5---4---|4---4---4-------|----------------|
G|2---2---2---2---|4---4---4---4---|6---6---6---6---|1-----------1---|
D|--2---2---2---2-|--4---4---4---4-|--6---6---6---6-|2---2---4-------|
A|0---------------|2---------------|4---------------|--2---2---2---2-|
E|----------------|----------------|----------------|0---------------|

                                                    |<- Repeat 3x  ->|
e|----------------|----------------|----------------|----------------|
B|2---2---4---5---|4---4---4-------|4---4---4-------|--------4---5---|
G|2---2---2---2---|4-4---4---4-----|--4---4---4-----|----6---6---6---|
D|--2---2---2---2-|----------------|----------------|--6---6---6-----|
A|0---------------|2---------------|----------------|4---------------|
E|----------------|----------------|----------------|--------------4-|

e|--4---7/12-12--11|
B|5----------------|
G|6----------------|
D|-----------------|
A|4----------------|
E|-----------------|

     Iíve made..mistakes...    to run...       goes on...           a-
e|12------0-------|--------0-------|--------0-------|--------0-------|
B|--------0-------|--------0-------|--------0-------|--------0-------|
G|----------------|----------------|----------------|----------------|
D|----------------|11--------------|7---------------|9---------------|
A|----------------|11--------------|7---------------|9---------------|
E|----------------|9---------------|5---------------|7---------------|
 
way..       this life...       scream...             How...
e|--------0-------|--------0-------|--------0-------|--------0-------|
B|--------0-------|--------0-------|--------0-------|--------0-------|
G|1---------------|----------------|----------------|----------------|
D|2---------------|11--------------|7---------------|9---------------|
A|2---------------|11--------------|7---------------|9---------------|
E|0---------------|9---------------|5---------------|7---------------|

  me...                                                How...   (Repeat 1x)
E||---------0-------|--------0-------|--------0-------|--------0-------||
B||*--------0-------|--------0-------|--------0-------|--------0------*||
G||-1---------------|----------------|----------------|----------------||
D||-2---------------|11--------------|7---------------|9---------------||
A||*2---------------|11--------------|7---------------|9--------------*||
E||-0---------------|9---------------|5---------------|7---------------||

  me...
e|----------------|----------------|0---------------||
B|----------------|----------------|0---------------||
G|----------------|----------------|1---------------||
D|7---------------|(7)-------------|2---------------||
A|7---------------|(7)-------------|2---------------||
E|5---------------|(5)-------------|0---------------||


| /  slide up
| \  slide down
| h  hammer-on
| p  pull-off
| ~  vibrato
| +  harmonic
| x  Mute note
=============================================================================
Related for Untitled Live tab