Song name
# A B C D E F G H I J K L M N O P Q R S T U V W X Y Z

Simple Plan - American Jesus tab

----------------------------------------------------------------------------
			     American Jesus - Simple Plan
----------------------------------------------------------------------------

Tabbed by: kiefermatot

Email: bat6man9@hotmail.com

Tuning: Standard


Simple Plan's cover of American Jesus by Bad Religion.


Intro/Main Riff:                     x2
E|------------------------------------|
B|------------------------------------|
G|------------------------------------|
D|-------------------0----------------|
A|---0--0--2h3--2h3-----3p2--3p2--0---|
E|------------------------------------|



Verse:

    A                C
E|--------------------------------------------|
B|--------------------------------------------|
G|--------------------------------------------|
D|--7-7-7-7-7-7-7-7--10-10-10-10-10-10-10-10--|
A|--7-7-7-7-7-7-7-7--10-10-10-10-10-10-10-10--|
E|--5-5-5-5-5-5-5-5---8--8--8--8--8--8--8--8--|

    F                G
E|------------------------------------|
B|------------------------------------|
G|------------------------------------|
D|--3-3-3-3-3-3-3-3--5-5-5-5-5-5-5-5--|
A|--3-3-3-3-3-3-3-3--5-5-5-5-5-5-5-5--|
E|--1-1-1-1-1-1-1-1--3-3-3-3-3-3-3-3--|



Chorus:

    A        C            F        G
E|------------------------------------------|
B|------------------------------------------|
G|------------------------------------------|
D|--7-7-7-7--10-10-10-10--3-3-3-3--5-5-5-5--|
A|--7-7-7-7--10-10-10-10--3-3-3-3--5-5-5-5--|
E|--5-5-5-5---8--8--8--8--1-1-1-1--3-3-3-3--|



Interlude:

    A                C                        F               
E|-------------------------------------------------------------|
B|-------------------------------------------------------------|
G|-------------------------------------------------------------|
D|--7-7-7-7-7-7-7-7--10-10-10-10-10-10-10-10--3-3-3-3-3-3-3-3--|
A|--7-7-7-7-7-7-7-7--10-10-10-10-10-10-10-10--3-3-3-3-3-3-3-3--|
E|--5-5-5-5-5-5-5-5---8--8--8--8--8--8--8--8--1-1-1-1-1-1-1-1--|



Continued...

    F                G                G
E|-----------------------------------------------------|
B|-----------------------------------------------------|
G|-----------------------------------------------------|
D|--3-3-3-3-3-3-3-3--5-5-5-5-5-5-5-5--5-5-5-5-5-5-5-5--|
A|--3-3-3-3-3-3-3-3--5-5-5-5-5-5-5-5--5-5-5-5-5-5-5-5--|
E|--1-1-1-1-1-1-1-1--3-3-3-3-3-3-3-3--3-3-3-3-3-3-3-3--|



| /  slide up
| \  slide down
| h  hammer-on
| p  pull-off
| ~  vibrato
| +  harmonic
| x  Mute note
============================================================================
Tap to rate this tab
# A B C D E F G H I J K L M N O P Q R S T U V W X Y Z