Guitaretab - guitar tabs
Song name
# A B C D E F G H I J K L M N O P Q R S T U V W X Y Z

Simple Plan - Save You tab

Hello, I'm not posting any tabs I made today, 
just altering kitkat93's version a little 
so that you can play along with the real song 
without a capo.

Here it is:

Play throughout first verse.
      Cm		F		 D#		   A#
E|-------------------------------------------------------------------|
B|-------4------------4------------4------------6--------------------|
G|--------------------------------------------------------x6---------|
D|----5------------6-----------5------------3------------------------|
A|-3------------------------6----------------------------------------|
E|-------------4------------------------6----------------------------|

Cm	   G#
take a breath,
       D#	    A#
Iíll pull myself together.
       Cm      G#     D#               A#
Just another step until I reach the door
	      Cm	G#
youíll never know the way,
      D#		   A#
it tears me up inside to see you
G#
ohh, ohh
   A#
I wish that I could tell you something 
G#
ohh, ohh
A#
to take it all away.


D#			   A#
Sometimes I wish I could save you
             Cm			A#
and thereís so many things that I want you know
D#			    A#
I wonít give up till itís over
         Cm		    A#
if it takes you forever, I want you to know


          Cm        G#
when I hear your voice,
         D#		A#
itís drowning in the whispers
             Cm	     G#
your just skin and bones
             D#		  A#
thereís nothing left to take
                 Cm   G#
and no matter what I do
D#		    A#
I canít make you feel better


G#
ohh, ohh
A#
if only I could find the answer
G#
ohh, ohh
A#
to help me understand


D#			   A#
Sometimes I wish I could save you
             Cm			    A#
and thereís so many things that I want you know
D#			    A#
I wonít give up till itís over
         Cm		    A#
if it takes you forever, I want you to know

[ Tab from: http://www.guitaretab.com/s/simple-plan/164601.html ]
       G#              A#
[that] if you fall, stumble down,
D#		Cm
Iíll pick you up off the ground.
G#	       A#
If you lose faith in you,
D#		 Cm
Iíll give you strength to pull through.
G#	      A#
Tell me you wonít give up,
G#		 Cm		   C#
cause Iíll be waiting here if you fall
A#          D#
you know Iíll be there for you

  Cm           G#		D#	 A#
E|--------------3---------------------------------|
B|----6--4---------4---------4-----6----4--4------|
G|-3----------3-----------3-----3-----------------|
D|------------------------------------------------|
A|------------------------------------------------|
E|------------------------------------------------|

     Cm           G#	D#		A#
E|--------------3------3--4--3--------------------|
B|----6--4---------4------------6-----------------|
G|-3----------3-----------------------------------|
D|------------------------------------------------|
A|------------------------------------------------|
E|------------------------------------------------|

	Cm        G#		D#	 A#
E|--------------3--------------------3------------|
B|----6--4---------4---------4----6-----6--4------|
G|-3----------3-----------3----3------------------|
D|------------------------------------------------|
A|------------------------------------------------|
E|------------------------------------------------|

G#
ohh, ohh
A#
if only I could find the answer,
G#
ohh, ohh
A#
to take it all away


D#			   A#
Sometimes I wish I could save you
             Cm			    A#
and thereís so many things that I want you know
D#			    A#
I wonít give up till itís over
         Cm		    A#
if it takes you forever, I want you to know


D#
ohh, ohh
     	         A#
I wish I could save you...
Cm
ohh, ohh
     A#
I want you to know...
D#
Ohh, ohh
    		 A#
I wish I could save you... 

Cm G# A# D#

Thanks once again to kitkat93 for posting the original tab.
Have a nice day!
Related for Save You tab