Song name
# A B C D E F G H I J K L M N O P Q R S T U V W X Y Z

Simple Plan - Summer Love tab

this is there "cover" of Summer Love by Justin Timberlake


e------------------------------|
b------------------------------|
g------------------------------|
d---4---4-6-8-6-4-----------4--|
a-----------------8-6~----8----|
E------------------------------|


it sound right to me...

alternate way to play is

e-----------------------------|
b-----------------------------|
g-----------------------------|
d--------6-8-6----------------|
a--9---9-------9-8-6~----8-9--|
E-----------------------------|
Tap to rate this tab
# A B C D E F G H I J K L M N O P Q R S T U V W X Y Z