Song name
# A B C D E F G H I J K L M N O P Q R S T U V W X Y Z

Simple Plan - Perfect Acoustic chords

Highlighted       Show chord diagrams
------By Hampe the Swede------

Tuning: E A B F#m


Intro:

-x--------x-------------x-----------x-----------|
-x--------x-------------x----7-9----x-----------|
-9--8--9--14--13--------9--8--------14--13------|
-9--------14------14----9-----------14------14--|
-7--------12------------7-----------12----------|
-0--------0-------------0-----------0-----------|

E A repeat twice

E
Hey dad look at me 
A 
Think back and talk to me 
      E                     A
Did I grow up according to plan? 
E                                   A 
And do you think I'm wasting my time doing things I wanna do? 
       E                             A 
But it hurts when you disapprove all along 
Refrain: 
F#m 
And now I try hard to make it 
A                      E 
I just want to make you proud 
E                                  F#m 
I'm never gonna be good enough for you 
                         A 
I can't pretend that I'm alright 
        B 
And you can't change me 
Chorus: 

PLAY LIKE THIS!
 E        B        A        B
-0--------0--------0--------0----------|
-0--------0--------0--------0----------|
-1--------8--------6--------8----------|
-2--------9--------7--------9----------|
-2--------9--------7--------9----------|
-0--------7--------5--------7----------|

Then repeat!


       E 
Cos we lost it all 
        B 
Nothing lasts forever 
    A 
I'm sorry 
           B 
I can't be perfect 
         E 
Now it's just too late and 
   B 
We can't go back 
   A 
I'm sorry 
           B  
I can't be perfect 

 
I try not to think 
About the pain I feel inside 
Did you know you used to be my hero? 
All the days you spend with me 
Now seem so far away 
And it feels like you don't care anymore 
(Do chords of Refrain) 
And now I try hard to make it 
I just want to make you proud 
I'm never gonna be good enough for you 
I can't stand another fight 
And nothing's alright 


PLAY LIKE THIS!


 H        B        A      
-0--------0--------0------|
-0--------0--------0------|
-4--------8--------6------|
-2--------9--------7------|
-0--------9--------7------|
-0--------7--------5------|
H                         B
Nothing's gonna change the things that you said 
H                         B
Nothing's gonna make this right again 
H
Please don't turn your back 
  B
I can't believe it's hard 
         A
Just to talk to you 
              H
But you don't understand 
Tap to rate this tab
 
# A B C D E F G H I J K L M N O P Q R S T U V W X Y Z