Song name
# A B C D E F G H I J K L M N O P Q R S T U V W X Y Z

Simple Plan - Whats New Scooby Doo tab

-------------------------------------------------------------------------------
			     What's new scooby Doo - Simple Plan
-------------------------------------------------------------------------------
This song can be played Palm muted or not it's really up to you, I prefer it without the muting.
Tabbed by:Jacob Rushby
Email:jjjzzzrrr@hotmail.com

Tuning:Standard - EADGBe/Distorted

e|-----------------------------------|
B|-----------------------------------|
G|-------------------66-------88--88-|
D|-44-------66-------66-------88--88-|
A|-44-------66-------44-------66--66-|x2
E|-22-------44-----------------------|

e|---------------------------------------------------|
B|---------------------------------------------------|
G|--------------------6--6---6-6-6-6-6-6-6-6-6-6-6-6-|
D|-44------66---------6--6---6-6-6-6-6-6-6-6-6-6-6-6-|
A|-44------66---------4--4---4-4-4-4-4-4-4-4-4-4-4-4-|
E|-22------44----------------------------------------|

e|-----------------------------------|
B|-----------------------------------|
G|-------------------66-------88--88-|
D|-44-------66-------66-------88--88-|
A|-44-------66-------44-------66--66-|x2
E|-22-------44-----------------------|

e|--------------------------------------------------|
B|--------------------------------------------------|
G|--------------------------8--8--8--8---6--6--6--x-|
D|-6--6--6--6--6--6--6--6---8--8--8--8---6--6--6--x-|
A|-6--6--6--6--6--6--6--6---6--6--6--6---4--4--4--x-|
E|-4--4--4--4--4--4--4--4---------------------------|x2

You repeat this several times, this is the full song, The way I play it. Please don't 
to e-mail me if you can't really understand it, I will make a youtube video of it if you 
ask me =)
Please enjoy!!!
************************************
| x   Mute note
************************************
Tap to rate this tab
# A B C D E F G H I J K L M N O P Q R S T U V W X Y Z