Simple Plan - No Love tab

---------------------------
No Love     By: Simple Plan
---------------------------

Tabbed By:   RussCool   
(I know, pretty lame name)

Tuning: STANDARD ( E A D G B E )


INTRO:

(Piano/Guitar1/Guitar2)

|-----------------------------|-----------------------------|
|---10----10----10----10------|---11----11----11----11------|
|------10----10----10----10---|------10----10----10----10---|
|-----------------------------|-----------------------------|
|-----------------------------|-----------------------------|
|-----------------------------|-----------------------------|

Guitar 1

|----------------------|----------------------|
|---5-6-6-6-6----------|---5-6-6-6-6-8--------|
|---X-X-X-X-X----------|---X-X-X-X-X-X--------|   X3
|---2-3-3-3-3----------|---2-3-3-3-3-5--------|
|----------------------|----------------------|
|----------------------|----------------------|

Guitar 2

|-----------------------------|-----------------------------|
|---10----10----10----10------|---11----11----11----11------|
|------10----10----10----10---|------10----10----10----10---|   X3
|-----------------------------|-----------------------------|
|-----------------------------|-----------------------------|
|-----------------------------|-----------------------------|

Guitar 1

|-----------------------------|-----------------------------|
|---10-11-11-11-11-11-11-11---|---11-11-11-11-10-11-10------|
|----X--X--X--X--X--X--X--X---|----X--X--X--X--X--X--X------|
|----7--8--8--8--8--8--8--8---|----8--8--8--8--7--8--7------|
|-----------------------------|-----------------------------|
|-----------------------------|-----------------------------|

Guitar 2

|-----------------------------|-----------------------------|
|---10----10----10----10------|---11----11----11----11------|
|------10----10----10----10---|------10----10----10----10---|
|-----------------------------|-----------------------------|
|-----------------------------|-----------------------------|
|-----------------------------|-----------------------------|

VERSE:

(Piano)

CHORUS:

Both Guitars

|---3-3-3-3------------|----------------------|----------------------|
|---4-4-4-4------------|----------------------|----------------------|
|---3-3-3-3-3-3-3-3----|---5-5-5-5-3-3-3-3----|----------------------|
|-----------3-3-3-3----|---5-5-5-5-3-3-3-3----|---6-6-6-6-6-6-6-6----|
|-----------1-1-1-1----|---3-3-3-3-1-1-1-1----|---6-6-6-6-6-6-6-6----|
|----------------------|----------------------|---4-4-4-4-4-4-4-4----|

|---3-3-3-3------------|----------------------|----------------------|
|---4-4-4-4------------|----------------------|----------------------|
|---3-3-3-3-3-3-3-3----|---5-5-5-5-3-3-3-3----|----------------------|
|-----------3-3-3-3----|---5-5-5-5-3-3-3-3----|---6------------------|
|-----------1-1-1-1----|---3-3-3-3-1-1-1-1----|---6------------------|
|----------------------|----------------------|---4------------------|

VERSE 2:

Both Guitars

|----------------------|-----------3-3-3-3----|
|----------------------|-----------4-4-4-4----|
|---5-5-5-5-3-3-3-3----|-----------3-3-3-3----|   X3
|---5-5-5-5-3-3-3-3----|---6-6-6-6------------|
|---3-3-3-3-1-1-1-1----|---6-6-6-6------------|
|----------------------|---4-4-4-4------------|

|----------------------|----------------------|
|----------------------|----------------------|
|----------------------|-----------3-3-3-3----|
|---3-3-3-3-3-3-3-3----|---6-6-6-6-3-3-3-3----|
|---3-3-3-3-3-3-3-3----|---6-6-6-6-1-1-1-1----|
|---1-1-1-1-1-1-1-1----|---4-4-4-4------------|

CHORUS 2:

(Same as first Chorus)

SOLO:

( ? )

CHORUS 3:

(Same as first Chorus)

OUTRO:

Both Guitars

|---3-3-3-3------------|----------------------|----------------------|
|---4-4-4-4------------|----------------------|----------------------|
|---3-3-3-3-3-3-3-3----|---5-5-5-5-3-3-3-3----|----------------------|
|-----------3-3-3-3----|---5-5-5-5-3-3-3-3----|---6------------------|
|-----------1-1-1-1----|---3-3-3-3-1-1-1-1----|---6------------------|
|----------------------|----------------------|---4------------------|
Tap to rate this tab
 
# A B C D E F G H I J K L M N O P Q R S T U V W X Y Z