Song name
# A B C D E F G H I J K L M N O P Q R S T U V W X Y Z

Simple Plan - Your Love Is A Lie tab

--------------------------------
Your Love is a Lie ~ Simple Plan
--------------------------------
Album: Simple Plan (2008)

Tabbed By: RussCool
(I know, pretty lame name)

Tuning: Half Step Down 

(Could also be played in 
Standard Tuning if you 
play a fret lower)

Guitarists:
Jeff Stinco
Sebastien Lefebvre



INTRO

Both Guitars
Eb|-----------2----------|------------------|
Bb|---------2---2--------|---------5--------|
Gb|-------2-------2------|-------6----------|
Db|-----4-----------4----|-----7------------|
Ab|----------------------|------------------|
Eb|---2------------------|---5--------------|

Eb|-----------0----------|------------------|
Bb|---------0---0--------|---------4--------|
Gb|-------1-------1------|-------4----------|
Db|-----2-----------2----|-----4------------|
Ab|----------------------|---2--------------|
Eb|---0------------------|------------------|

Eb|-----------2----------|------------------|
Bb|---------2---2--------|---------5--------|
Gb|-------2-------2------|-------6----------|
Db|-----4-----------4----|-----7------------|
Ab|----------------------|------------------|
Eb|---2------------------|---5--------------|

Eb|-----------0----------|------------------|
Bb|---------0---0--------|---------4--------|
Gb|-------1-------1------|-------4----------|
Db|-----2-----------2----|-----4------------|
Ab|----------------------|---2--------------|
Eb|---0------------------|------------------|


VERSE
(Same as Intro)


PRE-CHORUS

GUITAR 1
Eb|---2-2-2-2-4-4-4-4----|---5-5-5-5-7-7-7-7----|
Bb|----------------------|----------------------|
Gb|----------------------|----------------------|
Db|----------------------|----------------------|
Ab|----------------------|----------------------|
Eb|----------------------|----------------------|

Eb|---2-2-2-2-4-4-4-4----|---5-5-5-5-4-4-4-4----|
Bb|----------------------|----------------------|
Gb|----------------------|----------------------|
Db|----------------------|----------------------|
Ab|----------------------|----------------------|
Eb|----------------------|----------------------|

Eb|---2-2-2-2-4-4-4-4----|---5-5-5-5-7-7-7-7----|
Bb|----------------------|----------------------|
Gb|----------------------|----------------------|
Db|----------------------|----------------------|
Ab|----------------------|----------------------|
Eb|----------------------|----------------------|

Eb|---2-2-2-2-4-4-4-4----|---5-5-5-5-4-4-4-4----|
Bb|----------------------|----------------------|
Gb|----------------------|----------------------|
Db|----------------------|----------------------|
Ab|----------------------|----------------------|
Eb|----------------------|----------------------|

GUITAR 2
Eb|-----------|-----------|-----------|-----------|
Bb|-----------|-----------|-----------|-----------|
Gb|-----------|---4-------|-----------|---6-------|
Db|---7-------|---4-------|---7-------|---6-------|
Ab|---7-------|---2-------|---7-------|---4-------|
Eb|---5-------|-----------|---5-------|-----------|

Eb|-----------|-----------|-----------|-----------|
Bb|-----------|-----------|-----------|-----------|
Gb|-----------|---4-------|-----------|---6-------|
Db|---7-------|---4-------|---7-------|---6-------|
Ab|---7-------|---2-------|---7-------|---4-------|
Eb|---5-------|-----------|---5-------|-----------|


CHORUS

GUITAR 1 (Both Guitars are optional)
Eb|------------------|-------------------|
Bb|------------------|-------------------|
Gb|------------------|---2--2--2--2------|
Db|---4--4--4--4-----|---2--2--2--2------|
Ab|---4--4--4--4-----|---0--0--0--0------|
Eb|---2--2--2--2-----|-------------------|

Eb|------------------|-------------------|
Bb|------------------|-------------------|
Gb|------------------|---4--4--4--4------|
Db|---2--2--2--2-----|---4--4--4--4------|
Ab|---2--2--2--2-----|---2--2--2--2------|
Eb|---0--0--0--0-----|-------------------|

Eb|------------------|-------------------|
Bb|------------------|-------------------|
Gb|------------------|---2--2--2--2------|
Db|---4--4--4--4-----|---2--2--2--2------|
Ab|---4--4--4--4-----|---0--0--0--0------|
Eb|---2--2--2--2-----|-------------------|

Eb|------------------|-------------------|
Bb|------------------|-------------------|
Gb|------------------|---4--4--4--4------|
Db|---2--2--2--2-----|---4--4--4--4------|
Ab|---2--2--2--2-----|---2--2--2--2------|
Eb|---0--0--0--0-----|-------------------|

Eb|------------------|-------------------|
Bb|------------------|-------------------|
Gb|---7--7--7--7-----|-------------------|
Db|---7--7--7--7-----|---7--7--7--7------|
Ab|---5--5--5--5-----|---7--7--7--7------|
Eb|------------------|---5--5--5--5------|

Eb|------------------|-------------------|
Bb|------------------|-------------------|
Gb|------------------|---4--4--4--4------|
Db|---2--2--2--2-----|---4--4--4--4------|
Ab|---2--2--2--2-----|---2--2--2--2------|
Eb|---0--0--0--0-----|-------------------|

Eb|----------------------|----------------------|
Bb|----------------------|----------------------|
Gb|---7-7-7-7-7-7-7-7----|---9-9-9-9-9-9-9-9----|
Db|---7-7-7-7-7-7-7-7----|---9-9-9-9-9-9-9-9----|
Ab|---5-5-5-5-5-5-5-5----|---7-7-7-7-7-7-7-7----|
Eb|----------------------|----------------------|


INTRO

VERSE

PRE-CHORUS



CHORUS

(Same as first Chorus only Guitar 2 plays this):
GUITAR 2
Eb|---14----------14--|---12----------12--|
Bb|-------14----------|-------14----------|
Gb|-----------14------|-----------14------|
Db|-------------------|-------------------|
Ab|-------------------|-------------------|
Eb|-------------------|-------------------|

Eb|---12----------12--|---11----------11--|
Bb|-------12----------|-------12----------|
Gb|-----------13------|-----------11------|
Db|-------------------|-------------------|
Ab|-------------------|-------------------|
Eb|-------------------|-------------------|

Eb|---14----------14--|---12----------12--|
Bb|-------14----------|-------14----------|
Gb|-----------14------|-----------14------|
Db|-------------------|-------------------|
Ab|-------------------|-------------------|
Eb|-------------------|-------------------|

Eb|---12----------12--|---11----------11--|
Bb|-------12----------|-------12----------|
Gb|-----------13------|-----------11------|
Db|-------------------|-------------------|
Ab|-------------------|-------------------|
Eb|-------------------|-------------------|

Eb|----------------------|----------------------|
Bb|---15------15---------|---14------14---------|
Gb|-------14------14-----|-------14------14-----|
Db|----------------------|----------------------|
Ab|----------------------|----------------------|
Eb|----------------------|----------------------|

Eb|---12------12---------|---11------11---------|
Bb|-------12------12-----|-------12------12-----|
Gb|----------------------|----------------------|
Db|----------------------|----------------------|
Ab|----------------------|----------------------|
Eb|----------------------|----------------------|

Eb|------------|---12-------|
Bb|---15-------|------------|
Gb|------------|------------|
Db|------------|------------|
Ab|------------|------------|
Eb|------------|------------|


BRIDGE

BOTH GUITARS
Eb|------------------|------------------|
Bb|------------------|------------------|
Gb|------------------|---2-2-2-2-2------|
Db|---4-4-4-4-4------|---2-2-2-2-2------|
Ab|---4-4-4-4-4------|---0-0-0-0-0------|
Eb|---2-2-2-2-2------|------------------|

Eb|------------------|------------------|
Bb|------------------|------------------|
Gb|------------------|---4-4-4-4-4------|
Db|---2-2-2-2-2------|---4-4-4-4-4------|
Ab|---2-2-2-2-2------|---2-2-2-2-2------|
Eb|---0-0-0-0-0------|------------------|

Eb|------------------|------------------|
Bb|------------------|------------------|
Gb|------------------|---2-2-2-2-2------|
Db|---4-4-4-4-4------|---2-2-2-2-2------|
Ab|---4-4-4-4-4------|---0-0-0-0-0------|
Eb|---2-2-2-2-2------|------------------|

Eb|------------------|------------------|
Bb|------------------|------------------|
Gb|------------------|---4-4-4-4-4------|
Db|---2-2-2-2-2------|---4-4-4-4-4------|
Ab|---2-2-2-2-2------|---2-2-2-2-2------|
Eb|---0-0-0-0-0------|------------------|


SOLO
( ? )


CHORUS


OUTRO

BOTH GUITARS
Eb|------------------|------------------|
Bb|------------------|------------------|
Gb|------------------|---2-2-2-2-2------|
Db|---4-4-4-4-4------|---2-2-2-2-2------|
Ab|---4-4-4-4-4------|---0-0-0-0-0------|
Eb|---2-2-2-2-2------|------------------|

Eb|------------------|------------------|
Bb|------------------|------------------|
Gb|------------------|---4-4-4-4-4------|
Db|---2-2-2-2-2------|---4-4-4-4-4------|
Ab|---2-2-2-2-2------|---2-2-2-2-2------|
Eb|---0-0-0-0-0------|------------------|

Eb|------------------|------------------|
Bb|------------------|------------------|
Gb|------------------|---2-2-2-2-2------|
Db|---4-4-4-4-4------|---2-2-2-2-2------|
Ab|---4-4-4-4-4------|---0-0-0-0-0------|
Eb|---2-2-2-2-2------|------------------|

Eb|------------------|------------------|
Bb|------------------|------------------|
Gb|------------------|---4-4-4-4-4------|
Db|---2-2-2-2-2------|---4-4-4-4-4------|
Ab|---2-2-2-2-2------|---2-2-2-2-2------|
Eb|---0-0-0-0-0------|------------------|

Eb|------------------|
Bb|------------------|
Gb|------------------|
Db|---4-4-4-4-4------|
Ab|---4-4-4-4-4------|
Eb|---2-2-2-2-2------|
Tap to rate this tab
 
# A B C D E F G H I J K L M N O P Q R S T U V W X Y Z