Song name
# A B C D E F G H I J K L M N O P Q R S T U V W X Y Z

Simple Plan - When Im Gone tab

---------------------------
When I'm Gone ~ Simple Plan
---------------------------
Album:  Simple Plan  (2008)


Tabbed By: RussCool
(I know, pretty lame name)


Tempo: Early 80s

Tuning: All Simple Plan Songs Are In A Half Step Down




INTRO
(Drum & Techno only)



VERSE 1

Guitar 1   (Staccatos)
Eb|------------------|------------------|------------------|------------------|
Bb|------------------|------------------|------------------|------------------|
Gb|------------------|---9--9--9--9-----|------------------|---6--6--6--6-----|
Db|---6--6--6--6-----|---9--9--9--9-----|---9--9--9--9-----|---6--6--6--6-----|
Ab|---6--6--6--6-----|---7--7--7--7-----|---9--9--9--9-----|---4--4--4--4-----|
Eb|---4--4--4--4-----|------------------|---7--7--7--7-----|------------------|

Guitar 2   (Staccatos)
Eb|------------------|------------------|------------------|------------------|
Bb|------------------|------------------|------------------|------------------|
Gb|------------------|---9--9--9--9-----|------------------|---6--6--6--6-----|
Db|---6--6--6--6-----|---9--9--9--9-----|---9--9--9--9-----|---6--6--6--6-----|
Ab|---6--6--6--6-----|---7--7--7--7-----|---9--9--9--9-----|---4--4--4--4-----|
Eb|---4--4--4--4-----|------------------|---7--7--7--7-----|------------------|

Guitar 1   (Staccatos)
Eb|------------------|------------------|------------------|--------------------|
Bb|------------------|------------------|------------------|--------------------|
Gb|------------------|---9--9--9--9-----|------------------|---6--6--6-6-6-6----|
Db|---6--6--6--6-----|---9--9--9--9-----|---9--9--9--9-----|---6--6--6-6-6-6----|
Ab|---6--6--6--6-----|---7--7--7--7-----|---9--9--9--9-----|---4--4--4-4-4-4----|
Eb|---4--4--4--4-----|------------------|---7--7--7--7-----|--------------------|

Guitar 2   (Staccatos)
Eb|----------------------|------------------|------------------|--------------------|
Bb|----------------------|------------------|------------------|--------------------|
Gb|----------------------|---9--9--9--9-----|------------------|---6--6--6-6-6-6----|
Db|-------6-------6------|---9--9--9--9-----|---9--9--9--9-----|---6--6--6-6-6-6----|
Ab|-----6---6---6---6----|---7--7--7--7-----|---9--9--9--9-----|---4--4--4-4-4-4----|
Eb|---4-------4----------|------------------|---7--7--7--7-----|--------------------|



CHORUS 1:

Guitar 1   (No Staccatos)
Eb|----------------------|----------------------|----------------------|----------------------|
Bb|----------------------|----------------------|----------------------|----------------------|
Gb|---9-9-9-9------------|----------------------|---9-9-9-9------------|----------------------|
Db|---9-9-9-9-9-9-9-9----|---6-6-6-6-4-4-4-4----|---9-9-9-9-9-9-9-9----|---6-6-6-6-4-4-4-4----|
Ab|---7-7-7-7-9-9-9-9----|---6-6-6-6-4-4-4-4----|---7-7-7-7-9-9-9-9----|---6-6-6-6-4-4-4-4----|
Eb|-----------7-7-7-7----|---4-4-4-4-2-2-2-2----|-----------7-7-7-7----|---4-4-4-4-2-2-2-2----|

Guitar 2   (No Staccatos)
Eb|----------------------|----------------------|----------------------|----------------------|
Bb|----------------------|----------------------|----------------------|----------------------|
Gb|---9-9-9-9------------|----------------------|---9-9-9-9------------|----------------------|
Db|---9-9-9-9-9-9-9-9----|---6-6-6-6-4-4-4-4----|---9-9-9-9-9-9-9-9----|---6-6-6-6-4-4-4-4----|
Ab|---7-7-7-7-9-9-9-9----|---6-6-6-6-4-4-4-4----|---7-7-7-7-9-9-9-9----|---6-6-6-6-4-4-4-4----|
Eb|-----------7-7-7-7----|---4-4-4-4-2-2-2-2----|-----------7-7-7-7----|---4-4-4-4-2-2-2-2----|

Guitar 1   (No Staccatos)
Eb|----------------------|----------------------|----------------------|----------------------|
Bb|----------------------|----------------------|----------------------|----------------------|
Gb|---9-9-9-9------------|----------------------|---9-9-9-9-9-9-9-9----|---6-6-6-6-8-8-8-8----|
Db|---9-9-9-9-9-9-9-9----|---6-6-6-6-4-4-4-4----|---9-9-9-9-9-9-9-9----|---6-6-6-6-8-8-8-8----|
Ab|---7-7-7-7-9-9-9-9----|---6-6-6-6-4-4-4-4----|---7-7-7-7-7-7-7-7----|---4-4-4-4-6-6-6-6----|
Eb|-----------7-7-7-7----|---4-4-4-4-2-2-2-2----|----------------------|----------------------|

Guitar 2 (No Staccatos)
Eb|----------------------|----------------------|----------------------|----------------------|
Bb|----------------------|----------------------|----------------------|----------------------|
Gb|---9-9-9-9------------|----------------------|---9-9-9-9-9-9-9-9----|---6-6-6-6-8-8-8-8----|
Db|---9-9-9-9-9-9-9-9----|---6-6-6-6-4-4-4-4----|---9-9-9-9-9-9-9-9----|---6-6-6-6-8-8-8-8----|
Ab|---7-7-7-7-9-9-9-9----|---6-6-6-6-4-4-4-4----|---7-7-7-7-7-7-7-7----|---4-4-4-4-6-6-6-6----|
Eb|-----------7-7-7-7----|---4-4-4-4-2-2-2-2----|----------------------|----------------------|



POST-CHORUS 1

Guitar 1   (No Staccatos)
Eb|--------------------|---------------------|--------------------|---------------------|
Bb|--------------------|---------------------|--------------------|---------------------|
Gb|----------9-9-------|---6-6----8-8-8-8----|----------9-9-------|---6-6----8-8-8-8----|
Db|---6-6----9-9-------|---6-6----8-8-8-8----|---6-6----9-9-------|---6-6----8-8-8-8----|
Ab|---6-6----7-7-------|---4-4----6-6-6-6----|---6-6----7-7-------|---4-4----6-6-6-6----|
Eb|---4-4--------------|---------------------|---4-4--------------|---------------------|

Guitar 2   (No Staccatos)
Eb|----------------------|----------------------|----------------------|----------------------|
Bb|----------------------|----------------------|----------------------|----------------------|
Gb|-----------9-9-X-X----|---6-6-X-X-8-8-8-8----|-----------9-9-X-X----|---6-6-X-X-8-8-8-8----|
Db|---6-6-X-X-7-7-X-X----|---6-6-X-X-8-8-8-8----|---6-6-X-X-7-7-X-X----|---6-6-X-X-8-8-8-8----|
Ab|---6-6-X-X-7-7-X-X----|---4-4-X-X-6-6-6-6----|---6-6-X-X-7-7-X-X----|---4-4-X-X-6-6-6-6----|
Eb|---4-4-X-X------------|----------------------|---4-4-X-X------------|----------------------|



VERSE 2

Guitar 1   (Staccatos)
Eb|------------------|------------------|------------------|------------------|
Bb|------------------|------------------|------------------|------------------|
Gb|------------------|---9--9--9--9-----|------------------|---6--6--6--6-----|
Db|---6--6--6--6-----|---9--9--9--9-----|---9--9--9--9-----|---6--6--6--6-----|
Ab|---6--6--6--6-----|---7--7--7--7-----|---9--9--9--9-----|---4--4--4--4-----|
Eb|---4--4--4--4-----|------------------|---7--7--7--7-----|------------------|

Guitar 2   (Staccatos)
Eb|------------------|------------------|------------------|------------------|
Bb|------------------|------------------|------------------|------------------|
Gb|------------------|---9--9--9--9-----|------------------|---6--6--6--6-----|
Db|---6--6--6--6-----|---9--9--9--9-----|---9--9--9--9-----|---6--6--6--6-----|
Ab|---6--6--6--6-----|---7--7--7--7-----|---9--9--9--9-----|---4--4--4--4-----|
Eb|---4--4--4--4-----|------------------|---7--7--7--7-----|------------------|

Guitar 1   (Staccatos)
Eb|------------------|------------------|------------------|--------------------|
Bb|------------------|------------------|------------------|--------------------|
Gb|------------------|---9--9--9--9-----|------------------|---6--6--6-6-6-6----|
Db|---6--6--6--6-----|---9--9--9--9-----|---9--9--9--9-----|---6--6--6-6-6-6----|
Ab|---6--6--6--6-----|---7--7--7--7-----|---9--9--9--9-----|---4--4--4-4-4-4----|
Eb|---4--4--4--4-----|------------------|---7--7--7--7-----|--------------------|

Guitar 2   (Staccatos)
Eb|----------------------|----------------------|----------------------|--------------------|
Bb|----------------------|----------------------|----------------------|--------------------|
Gb|----------------------|-------9-------9------|----------------------|---6--6--6-6-6-6----|
Db|-------6-------6------|-----9---9---9---9----|-------9-------9------|---6--6--6-6-6-6----|
Ab|-----6---6---6---6----|---7-------7----------|-----9---9---9---9----|---4--4--4-4-4-4----|
Eb|---4-------4----------|----------------------|---7-------7----------|--------------------|



CHORUS 2

Guitar 1   (No Staccatos)
Eb|----------------------|----------------------|----------------------|----------------------|
Bb|----------------------|----------------------|----------------------|----------------------|
Gb|---9-9-9-9------------|----------------------|---9-9-9-9------------|----------------------|
Db|---9-9-9-9-9-9-9-9----|---6-6-6-6-4-4-4-4----|---9-9-9-9-9-9-9-9----|---6-6-6-6-4-4-4-4----|
Ab|---7-7-7-7-9-9-9-9----|---6-6-6-6-4-4-4-4----|---7-7-7-7-9-9-9-9----|---6-6-6-6-4-4-4-4----|
Eb|-----------7-7-7-7----|---4-4-4-4-2-2-2-2----|-----------7-7-7-7----|---4-4-4-4-2-2-2-2----|

Guitar 2   (No Staccatos)
Eb|----------------------|----------------------|----------------------|----------------------|
Bb|----------------------|----------------------|----------------------|----------------------|
Gb|---9-9-9-9------------|----------------------|---9-9-9-9------------|----------------------|
Db|---9-9-9-9-9-9-9-9----|---6-6-6-6-4-4-4-4----|---9-9-9-9-9-9-9-9----|---6-6-6-6-4-4-4-4----|
Ab|---7-7-7-7-9-9-9-9----|---6-6-6-6-4-4-4-4----|---7-7-7-7-9-9-9-9----|---6-6-6-6-4-4-4-4----|
Eb|-----------7-7-7-7----|---4-4-4-4-2-2-2-2----|-----------7-7-7-7----|---4-4-4-4-2-2-2-2----|

Guitar 1   (No Staccatos)
Eb|----------------------|----------------------|----------------------|----------------------|
Bb|----------------------|----------------------|----------------------|----------------------|
Gb|---9-9-9-9------------|----------------------|---9-9-9-9-9-9-9-9----|---6-6-6-6-8-8-8-8----|
Db|---9-9-9-9-9-9-9-9----|---6-6-6-6-4-4-4-4----|---9-9-9-9-9-9-9-9----|---6-6-6-6-8-8-8-8----|
Ab|---7-7-7-7-9-9-9-9----|---6-6-6-6-4-4-4-4----|---7-7-7-7-7-7-7-7----|---4-4-4-4-6-6-6-6----|
Eb|-----------7-7-7-7----|---4-4-4-4-2-2-2-2----|----------------------|----------------------|

Guitar 2   (No Staccatos)
Eb|----------------------|----------------------|----------------------|----------------------|
Bb|----------------------|----------------------|----------------------|----------------------|
Gb|---9-8-6-4-4-6-8\-----|----------------------|---9-9-9-9-9-9-9-9----|---6-6-6-6-8-8-8-8----|
Db|---X-X-X-X-X-X-X------|---6-6-6-6-4-4-4-4----|---9-9-9-9-9-9-9-9----|---6-6-6-6-8-8-8-8----|
Ab|---7-6-4-2-2-4-6\-----|---6-6-6-6-4-4-4-4----|---7-7-7-7-7-7-7-7----|---4-4-4-4-6-6-6-6----|
Eb|----------------------|---4-4-4-4-2-2-2-2----|----------------------|----------------------|



POST-CHORUS 2

Guitar 1   (No Staccatos)
Eb|--------------------|---------------------|--------------------|---------------------|
Bb|--------------------|---------------------|--------------------|---------------------|
Gb|----------9-9-------|---6-6----8-8-8-8----|----------9-9-------|---6-6----8-8-8-8----|
Db|---6-6----9-9-------|---6-6----8-8-8-8----|---6-6----9-9-------|---6-6----8-8-8-8----|
Ab|---6-6----7-7-------|---4-4----6-6-6-6----|---6-6----7-7-------|---4-4----6-6-6-6----|
Eb|---4-4--------------|---------------------|---4-4--------------|---------------------|

Guitar 2   (No Staccatos)
Eb|----------------------|----------------------|----------------------|----------------------|
Bb|----------------------|----------------------|----------------------|----------------------|
Gb|-----------9-9-X-X----|---6-6-X-X-8-8-8-8----|-----------9-9-X-X----|---6-6-X-X-8-8-8-8----|
Db|---6-6-X-X-7-7-X-X----|---6-6-X-X-8-8-8-8----|---6-6-X-X-7-7-X-X----|---6-6-X-X-8-8-8-8----|
Ab|---6-6-X-X-7-7-X-X----|---4-4-X-X-6-6-6-6----|---6-6-X-X-7-7-X-X----|---4-4-X-X-6-6-6-6----|
Eb|---4-4-X-X------------|----------------------|---4-4-X-X------------|----------------------|




BRIDGE

(When I'm GOOOOoooonnneee)
(Pickslide)

Guitar 1   (No Staccatos)
Eb|------------------------------|----------------------|
Bb|------------------------------|----------------------|
Gb|---13-13-13-13-13-13-13-13----|---9-9-9-9-9-9-9-9----|
Db|---13-13-13-13-13-13-13-13----|---9-9-9-9-9-9-9-9----|
Ab|---11-11-11-11-11-11-11-11----|---7-7-7-7-7-7-7-7----|
Eb|------------------------------|----------------------|

Guitar 2   (No Staccatos)
Eb|------------------------------|----------------------|
Bb|------------------------------|----------------------|
Gb|---13-13-13-13-13-13-13-13----|---9-9-9-9-9-9-9-9----|
Db|----X--X--X--X--X--X--X--X----|---X-X-X-X-X-X-X-X----|
Ab|---11-11-11-11-11-11-11-11----|---7-7-7-7-7-7-7-7----|
Eb|------------------------------|----------------------|

Guitar 1   (No Staccatos)
Eb|----------------------|----------------------|
Bb|----------------------|----------------------|
Gb|---4-4-4-4-4-4-4-4----|----------------------|
Db|---4-4-4-4-4-4-4-4----|---4-4-4-4-4-4-4-4----|
Ab|---2-2-2-2-2-2-2-2----|---4-4-4-4-4-4-4-4----|
Eb|----------------------|---2-2-2-2-2-2-2-2----|

Guitar 2   (No Staccatos)
Eb|----------------------|----------------------|
Bb|----------------------|----------------------|
Gb|---4-4-4-4-4-4-4-4----|----------------------|
Db|---X-X-X-X-X-X-X-X----|---4-4-4-4-4-4-4-4----|
Ab|---2-2-2-2-2-2-2-2----|---4-4-4-4-4-4-4-4----|
Eb|----------------------|---2-2-2-2-2-2-2-2----|

Guitar 1   (No Staccatos)
Eb|------------------------------|----------------------|
Bb|------------------------------|----------------------|
Gb|---13-13-13-13-13-13-13-13----|---9-9-9-9-9-9-9-9----|
Db|---13-13-13-13-13-13-13-13----|---9-9-9-9-9-9-9-9----|
Ab|---11-11-11-11-11-11-11-11----|---7-7-7-7-7-7-7-7----|
Eb|------------------------------|----------------------|

Guitar 2   (No Staccatos)
Eb|------------------------------|----------------------|
Bb|------------------------------|----------------------|
Gb|---13-13-13-13-13-13-13-13----|---9-9-9-9-9-9-9-9----|
Db|----X--X--X--X--X--X--X--X----|---X-X-X-X-X-X-X-X----|
Ab|---11-11-11-11-11-11-11-11----|---7-7-7-7-7-7-7-7----|
Eb|------------------------------|----------------------|

Guitar 1   (No Staccatos)
Eb|----------------------|----------------------|
Bb|----------------------|----------------------|
Gb|---4-4-4-4-4-4-4-4----|----------------------|
Db|---4-4-4-4-4-4-4-4----|---4-4-4-4-4\---------|
Ab|---2-2-2-2-2-2-2-2----|---4-4-4-4-4\---------|
Eb|----------------------|---2-2-2-2-2\---------|

Guitar 2   (No Staccatos)
Eb|----------------------|----------------------|
Bb|----------------------|----------------------|
Gb|---4-4-4-4-4-4-4-4----|----------------------|
Db|---X-X-X-X-X-X-X-X----|---4-4-4-4-4\---------|
Ab|---2-2-2-2-2-2-2-2----|---4-4-4-4-4\---------|
Eb|----------------------|---2-2-2-2-2\---------|



CHORUS 3

Guitar 1   (No Staccatos)
Eb|----------------------|----------------------|----------------------|----------------------|
Bb|----------------------|----------------------|----------------------|----------------------|
Gb|---9-9-9-9------------|----------------------|---9-9-9-9------------|----------------------|
Db|---9-9-9-9-9-9-9-9----|---6-6-6-6-4-4-4-4----|---9-9-9-9-9-9-9-9----|---6-6-6-6-4-4-4-4----|
Ab|---7-7-7-7-9-9-9-9----|---6-6-6-6-4-4-4-4----|---7-7-7-7-9-9-9-9----|---6-6-6-6-4-4-4-4----|
Eb|-----------7-7-7-7----|---4-4-4-4-2-2-2-2----|-----------7-7-7-7----|---4-4-4-4-2-2-2-2----|

Guitar 2   (No Staccatos)
Eb|----------------------|----------------------|----------------------|----------------------|
Bb|----------------------|----------------------|----------------------|----------------------|
Gb|---9-8-6-4-4-6-8\-----|----------------------|---9-8-6-4-4-6-8\-----|----------------------|
Db|---X-X-X-X-X-X-X------|---6-6-6-6-4-4-4-4----|---X-X-X-X-X-X-X------|---6-6-6-6-4-4-4-4----|
Ab|---7-6-4-2-2-4-6\-----|---6-6-6-6-4-4-4-4----|---7-6-4-2-2-4-6\-----|---6-6-6-6-4-4-4-4----|
Eb|----------------------|---4-4-4-4-2-2-2-2----|----------------------|---4-4-4-4-2-2-2-2----|

Guitar 1   (No Staccatos)
Eb|----------------------|----------------------|----------------------|----------------------|
Bb|----------------------|----------------------|----------------------|----------------------|
Gb|---9-9-9-9------------|----------------------|---9-9-9-9-9-9-9-9----|---6-6-6-6-8-8-8-8----|
Db|---9-9-9-9-9-9-9-9----|---6-6-6-6-4-4-4-4----|---9-9-9-9-9-9-9-9----|---6-6-6-6-8-8-8-8----|
Ab|---7-7-7-7-9-9-9-9----|---6-6-6-6-4-4-4-4----|---7-7-7-7-7-7-7-7----|---4-4-4-4-6-6-6-6----|
Eb|-----------7-7-7-7----|---4-4-4-4-2-2-2-2----|----------------------|----------------------|

Guitar 2   (No Staccatos)
Eb|----------------------|----------------------|----------------------|----------------------|
Bb|----------------------|----------------------|----------------------|----------------------|
Gb|---9-8-6-4-4-6-8\-----|----------------------|---9-9-9-9-9-9-9-9----|---6-6-6-6-8-8-8-8----|
Db|---X-X-X-X-X-X-X------|---6-6-6-6-4-4-4-4----|---9-9-9-9-9-9-9-9----|---6-6-6-6-8-8-8-8----|
Ab|---7-6-4-2-2-4-6\-----|---6-6-6-6-4-4-4-4----|---7-7-7-7-7-7-7-7----|---4-4-4-4-6-6-6-6----|
Eb|----------------------|---4-4-4-4-2-2-2-2----|----------------------|----------------------|



POST-CHORUS 3


Guitar 1   (No Staccatos)
Eb|--------------------|---------------------|--------------------|---------------------|
Bb|--------------------|---------------------|--------------------|---------------------|
Gb|----------9-9-------|---6-6----8-8-8-8----|----------9-9-------|---6-6----8-8-8-8----|
Db|---6-6----9-9-------|---6-6----8-8-8-8----|---6-6----9-9-------|---6-6----8-8-8-8----|
Ab|---6-6----7-7-------|---4-4----6-6-6-6----|---6-6----7-7-------|---4-4----6-6-6-6----|
Eb|---4-4--------------|---------------------|---4-4--------------|---------------------|

Guitar 2   (No Staccatos)
Eb|----------------------|----------------------|----------------------|----------------------|
Bb|----------------------|----------------------|----------------------|----------------------|
Gb|-----------9-9-X-X----|---6-6-X-X-8-8-8-8----|-----------9-9-X-X----|---6-6-X-X-8-8-8-8----|
Db|---6-6-X-X-7-7-X-X----|---6-6-X-X-8-8-8-8----|---6-6-X-X-7-7-X-X----|---6-6-X-X-8-8-8-8----|
Ab|---6-6-X-X-7-7-X-X----|---4-4-X-X-6-6-6-6----|---6-6-X-X-7-7-X-X----|---4-4-X-X-6-6-6-6----|
Eb|---4-4-X-X------------|----------------------|---4-4-X-X------------|----------------------|

Guitar 1   (No Staccatos)
Eb|--------------------|---------------------|--------------------|---------------------|
Bb|--------------------|---------------------|--------------------|---------------------|
Gb|----------9-9-------|---6-6----8-8-8-8----|----------9-9-------|---6-6----8-8-8-8----|
Db|---6-6----9-9-------|---6-6----8-8-8-8----|---6-6----9-9-------|---6-6----8-8-8-8----|
Ab|---6-6----7-7-------|---4-4----6-6-6-6----|---6-6----7-7-------|---4-4----6-6-6-6----|
Eb|---4-4--------------|---------------------|---4-4--------------|---------------------|

Guitar 2   (No Staccatos)
Eb|----------------------|----------------------|----------------------|----------------------|
Bb|----------------------|----------------------|----------------------|----------------------|
Gb|-----------9-9-X-X----|---6-6-X-X-8-8-8-8----|-----------9-9-X-X----|---6-6-X-X-8-8-8-8----|
Db|---6-6-X-X-7-7-X-X----|---6-6-X-X-8-8-8-8----|---6-6-X-X-7-7-X-X----|---6-6-X-X-8-8-8-8----|
Ab|---6-6-X-X-7-7-X-X----|---4-4-X-X-6-6-6-6----|---6-6-X-X-7-7-X-X----|---4-4-X-X-6-6-6-6----|
Eb|---4-4-X-X------------|----------------------|---4-4-X-X------------|----------------------|




OUTRO
(Drum & Techno only)
Tap to rate this tab
 
# A B C D E F G H I J K L M N O P Q R S T U V W X Y Z