Song name
# A B C D E F G H I J K L M N O P Q R S T U V W X Y Z

Simple Plan - Perfect World tab

e |--------------------------------------------------------------|
B |--------------------------------------------------------------|
G |------0--------------0----------------------------------------|
D |---1-----1-------1------1-------1---3---1-------1---3---1-----|
A |-3----------------------------1---------------1---------------|
E |--------------4-----------------------------------------------|


e |--------------------------------------------------------------|
B |--------------------------------------------------------------|
G |------0--------------0----------------------------------------|
D |---1-----1-------1------1-------1---3---1-------1---3---1-----|
A |-3----------------------------1---------------1---------------|
E |--------------4-----------------------------------------------|


e |--------------------------------------------------------------|
B |--------------------------------------------------------------|
G |--------------------------------------------------------------|
D |-5-5/-12--5-5/-12--8-/-10--12-\-10-7-7-/-8-\-7----------------|
A |-3-3/-10--3-3/-10--6-/-8---10-\-8--5-5-/-6-\-5----------------|
E |--------------------------------------------------------------|


e |--------------------------------------------------------------|
B |--------------------------------------------------------------|
G |--------------------------------------------------------------|
D |-5-5/-12--5-5/-12--8-/-10--12-\-10-7-7-/-8-\-7--5-------------|
A |-3-3/-10--3-3/-10--6-/-8---10-\-8--5-5-/-6-\-5--3-------------|
E |--------------------------------------------------------------|

I hope I helped : by Ariel Kadosh
Tap to rate this tab
 
# A B C D E F G H I J K L M N O P Q R S T U V W X Y Z