Simple Plan - One Day tab

---------------------
One Day ~ Simple Plan
---------------------
No Pads, No Helmets... Just Balls
(2002)

Tabbed By: RussCool
(I know, pretty lame name)

Part: INTRO

Timing: 4/4

Tempo: 86

Tuning: Half Step Down



Eb|---------------|-------------------------------------|
Bb|---------------|-------------------------------------|
Gb|---------------|-----------11-9----------------------|
Db|---------------|-----------12---12-0-----------------|
Ab|---------------|-------------------------------------|
Eb|--------5/-----|---10--10------------3--3--X-X-3-----|

Eb|-----------------------------------|-------------------------------------|
Bb|---------7-5-----------------------|-------------------------------------|
Gb|---------7---7---------------------|-----------11-9----------------------|
Db|---------------0-----------0-------|-----------12---12-0-----------------|
Ab|-----------------------0-2---------|-------------------------------------|
Eb|---5--5----------3--3--------7/----|---10--10------------3--3--X-X-3-----|

Eb|------------------------------|
Bb|---------7-5------------------|
Gb|---------7---7----------------|
Db|---------------0--------------|
Ab|-----------------------5------|
Eb|---5--5----------3--3--3------|



I have to admit, it's kinda tough, but it's possible. 

If you have a problem or suggestion about this tab,
I would love for you to comment this.
(Even though I think it's 99.9% correct)


You could try this:


b|----------------|-------------------------------------|
Bb|---------------|-------------------------------------|
Gb|---------------|-----------11-9----------------------|
Db|---------------|----------------12-0-----------------|
Ab|---------------|-------------------------------------|
Eb|--------5/-----|---10--10------------3--3--X-X-3-----|

Eb|------------------------------------|------------------------------------|
Bb|------------------------------------|------------------------------------|
Gb|---------11-9-----------------------|-----------11-9---------------------|
Db|--------------12-0----------0-------|----------------12-0----------------|
Ab|------------------------0-2---------|------------------------------------|
Eb|---5--5------------3--3-------7/----|---10--10------------3--3--X-X-3----|

Eb|--------------------------------|
Bb|--------------------------------|
Gb|---------11-9-------------------|
Db|--------------12-0--------------|
Ab|-------------------------5------|
Eb|---5--5------------3--3--3------|



OK, Bye.
Tap to rate this tab
 
# A B C D E F G H I J K L M N O P Q R S T U V W X Y Z